Song name
# A B C D E F G H I J K L M N O P Q R S T U V W X Y Z

Black Keys - Hell Of A Season tab

Song: Hell Of A Season  Artist: The Black Keys

*Adapted bass parts to guitar



Intro: 0:01-0:07

e|------------------------------|
B|------------------------------|
G|------------------------------|
D|---7--77----7--77----77-------|  x2
A|------------------------------|
E|-0--------0--------0----------|



0:07-0:16


   Dm           Am        Em
e|-5--5--5--5---5--5--5--5---7--7--7--7--7--7-|
B|-6--6--6--6---5--5--5--5---8--8--8--8--8--8-|
G|-7--7--7--7---5--5--5--5---9--9--9--9--9--9-|
D|-7--7--7--7---7--7--7--7---9--9--9--9--9--9-|  x2  (The second time exclude the Em)
A|-5--5--5--5----------------7--7--7--7--7--7-|
E|--------------------------------------------|



Verse: 0:16-0:35 (On itís own)


e|------------------------------------------------------|
B|------------------------------------------------------|
G|------------------------------------------------------|
D|---7--77----7--77----77-----9--99---9--99----99-------|
A|------------------------------------------------------|
E|-0--------0--------0------7-------7--------7----------|

e|------------------------------------------------------|
B|------------------------------------------------------|
G|------------------------------------------------------|
D|---7--77---7--77----77------7--77----7--77----77------|
A|------------------------------------------------------|
E|-5--------5-------5-------0--------0--------0---------|



0:35-0:47 (Then the guitar comes in with whatís below. The rest of the verses are just 
what's above and the chords below combined. Play which ever you want)

    Em          Bm          Am          Em
e|-7--7--7--7--7--7--7--7--5--5--5--5--7--7--7--7--|
B|-8--8--8--8--7--7--7--7--5--5--5--5--8--8--8--8--|
G|-9--9--9--9--7--7--7--7--5--5--5--5--9--9--9--9--|
D|-9--9--9--9--9--9--9--9--7--7--7--7--9--9--9--9--|
A|-7--7--7--7--------------------------7--7--7--7--|
E|-------------------------------------------------|



Chorus: 0:47-1:13

   Em                      D
e|-7--7--7--7--7--7--7--7---5--5--5--5--5--5--5--5-|
B|-8--8--8--8--8--8--8--8---7--7--7--7--7--7--7--7-|
G|-9--9--9--9--9--9--9--9---7--7--7--7--7--7--7--7-|
D|-9--9--9--9--9--9--9--9---7--7--7--7--7--7--7--7-|
A|-7--7--7--7--7--7--7--7---5--5--5--5--5--5--5--5-|
E|-------------------------------------------------|

   Am                      Em
e|-0--0--0--0--0--0--0--0--7--7--7--7--7--7--7--7-|
B|-1--1--1--1--1--1--1--1--8--8--8--8--8--8--8--8-|
G|-2--2--2--2--2--2--2--2--9--9--9--9--9--9--9--9-|
D|-2--2--2--2--2--2--2--2--9--9--9--9--9--9--9--9-|  x2
A|-0--0--0--0--0--0--0--0--5--5--5--5--5--5--5--5-|
E|------------------------------------------------|



This is a small section after the first chorus only.

e|-----------------|
B|-----------------|
G|-----------------|
D|-----------------|
A|-77777777--------|
E|-----------------|



Verse x2

Chorus x2

Verse x3



Solo: 2:47-3:37 (Use the chorus chords)

e|---------------------------------------------------------------------|
B|-12-12----12-12---------------------------------------15-12-12-------|
G|-------14-----------12-14-14-12-14h12----14h12-----------------14----|
D|----------------14-------------------14-------14-14------------------|  x6
A|---------------------------------------------------------------------|
E|---------------------------------------------------------------------|



Outro: 3:37-3:44

e|-------------------------------------------------------|
B|-------------------------------------------------------|
G|-------------------------------------------------------|
D|--7--77---7--77----77-----9--99---9--99----99---9--7---|
A|-------------------------------------------------------|
E|-0------0--------0------7-------7--------7----7--------|



The End
Tap to rate this tab
# A B C D E F G H I J K L M N O P Q R S T U V W X Y Z