Song name
# A B C D E F G H I J K L M N O P Q R S T U V W X Y Z

Black Keys - Till I Get My Way tab

Till I Get My Way (Black Keys)
h - hammer on 
p - pull off 
b - bend string up
r - release bend
/ - slide up
\ - slide down
v - vibrato (sometimes written as ~)
t - right hand tap
x - play 'note' with heavy damping

Intro

e-------------------------------------------------|
b-------------------------------------------------|
g-------------------------------------------------|
d--0\4--4-4-4-4-4-4-4-4-4-4-4---------------------|
a-------------------------------------------------|
e-----------------------------0\6-----------------|

Verse

Play 8x

e-------------------------------------------------|
b-------------------------------------------------|
g-------------------------------------------------|
d--------2h4--2-----------------------------------| 
a---------------2-2---0h2--0----------------------|
e--2-2-2------------2-----------------------------|

Chorus

e-------------------------------------------------|
b-------------------------------------------------|
g-------------------------------------------------|
d------2-4----------------------------------------|
a--4-4-----2-----2-2-0----------------------------|
e----------------------2--------------------------|

Verse

Play 6x

e-------------------------------------------------|
b-------------------------------------------------|
g-------------------------------------------------|
d--------2h4--2-----------------------------------| 
a---------------2-2---0h2--0----------------------|
e--2-2-2------------2-----------------------------|

Chorus

e-------------------------------------------------|
b-------------------------------------------------|
g-------------------------------------------------|
d------2-4----------------------------------------|
a--4-4-----2-----2-2-0----------------------------|
e----------------------2--------------------------|

Verse

Play 2x

e-------------------------------------------------|
b-------------------------------------------------|
g-------------------------------------------------|
d--------2h4--2-----------------------------------| 
a---------------2-2---0h2--0----------------------|
e--2-2-2------------2-----------------------------|

Solo

e-------------------------------------------------|
b--------------7p5--------------------------------|
g--------5b6--------6-4b5-4-------5b6--5b6--5b6-5-|
d-------------------------------------------------|
a--4-4------------------------4-4-----------------|
e--2-2------------------------2-2-----------------|

e-------------------------------------------------|
b------------5-7----------------------------------|
g-------4h6------4-----------5b6-5-5b6-5-5b6-5----|
d------------------7p4----------------------------|
a--4-4------------------4-4-----------------------|
e--2-2------------------2-2-----------------------|

Verse

Play 3x

e-------------------------------------------------|
b-------------------------------------------------|
g-------------------------------------------------|
d--------2h4--2-----------------------------------|
a---------------2-2---0h2--0----------------------|
e--2-2-2------------2-----------------------------|

e-------------------------------------------------|
b-------------------------------------------------|
g-------------------------------------------------|
d----2h4-4--2-------------------------------------|
a---------------2-2---0h2--0----------------------|
e--2----------------2-----------------------------|

Play 4x

e-------------------------------------------------|
b-------------------------------------------------|
g-------------------------------------------------|
d----2h4-4--2-------------------------------------|   
a---------------2-2---0h2--0----------------------|
e--2----------------2-----------------------------|

Chorus

e-------------------------------------------------|
b-------------------------------------------------|
g-------------------------------------------------|
d------2-4----------------------------------------|
a--4-4-----2-----2-2-0----------------------------|
e----------------------2--------------------------|

Verse

Play 4x

e-------------------------------------------------|
b-------------------------------------------------|
g-------------------------------------------------|
d--------2h4--2-----------------------------------|
a---------------2-2---0h2--0----------------------|
e--2-2-2------------2-----------------------------|

Outro

e-------------------------------------------------|
b-------------------------------------------------|
g-------------------------------------------------|
d--0\4--4-4-4-4-4-4-4-4-4-4-4---------------------|
a----------------------------------4--------------|
e-----------------------------0\6--2--------------|
Tap to rate this tab
 
# A B C D E F G H I J K L M N O P Q R S T U V W X Y Z