Song name
# A B C D E F G H I J K L M N O P Q R S T U V W X Y Z

Black Keys - Gold On The Ceiling tab

-------------------------------------------------------------------------------
                 Gold On The Ceilling - The Black Keys
-------------------------------------------------------------------------------
Tabbed by: Maartenpunks
Tuning: EADGBe

Intro part 1
e|---------------------------------------------------------------------------|
B|---------------------------------------------------------------------------|
G|---------------------------------------------------------------------------|
D|--10--10--12--10--7--7--7--7--5--5--7--5--3--3--3--3--3--3--3--3-----------|
A|--8---8---8---8---5--5--5--5--3--3--3--3--1--1--1--1--1--1--1--1-----------|
E|---------------------------------------------------------------------------|

Intro Part 2
e|---------------------------------------------------------------------------|
B|---------------------------------------------------------------------------|
G|--------------------5--------------------5---------------------------------|
D|--5--5-5--5-5--5-5--5--5--5-5--5-5--5-5--5---------------------------------|
A|--5--5-5--5-5--5-5--3--5--5-5--5-5--5-5--3---------------------------------|  x2
E|--3--3-3--3-3--3-3-----3--3-3--3-3--3-3------------------------------------|

Intro Part 3 (When the keyboard comes in)
e|--------------------------------------------------------------------------------------|
B|--------------------------------------------------------------------------------------|
G|--------------------------------------------5--5-5--5-5--5-5--5-----------------------|
D|--5--5-5--5-5--5-5--5--3--3-3--3-3--3-3--3--5--5-5--5-5--5-5--5--5--5-5--5-5--5-5--5--|
A|--5--5-5--5-5--5-5--5--3--3-3--3-3--3-3--3--3--3-3--3-3--3-3--3--5--5-5--5-5--5-5--5--|  x2
E|--3--3-3--3-3--3-3--3--1--1-1--1-1--1-1--1-----------------------3--3-3--3-3--3-3--3--|

Verse
e|--------------------------------------------------------------------------------------|
B|--------------------------------------------------------------------------------------|
G|--------------------------------------------5--5-5--5-5--5-5--5-----------------------|
D|--5--5-5--5-5--5-5--5--3--3-3--3-3--3-3--3--5--5-5--5-5--5-5--5--5--5-5--5-5--5-5--5--|
A|--5--5-5--5-5--5-5--5--3--3-3--3-3--3-3--3--3--3-3--3-3--3-3--3--5--5-5--5-5--5-5--5--|  x3
E|--3--3-3--3-3--3-3--3--1--1-1--1-1--1-1--1-----------------------3--3-3--3-3--3-3--3--|

Chorus Part 1
e|-----------------------------------|
B|-----------------------------------|
G|-------5-5--------------5----------|
D|--3-3--5-5--5-3-5--3-3--5-33-5-----|
A|--3-3--3-3--5-3-5--3-3--3-33-5-----|  x2
E|--1-1-------3-1-3--1-1----11-3-----|

Chorus Part 2
e|--------------------------------------------------------------------------------------|
B|--------------------------------------------------------------------------------------|
G|--------------------------------------------5--5-5--5-5--5-5--5-----------------------|
D|--5--5-5--5-5--5-5--5--3--3-3--3-3--3-3--3--5--5-5--5-5--5-5--5--5--5-5--5-5--5-5--5--|
A|--5--5-5--5-5--5-5--5--3--3-3--3-3--3-3--3--3--3-3--3-3--3-3--3--5--5-5--5-5--5-5--5--|  x2
E|--3--3-3--3-3--3-3--3--1--1-1--1-1--1-1--1-----------------------3--3-3--3-3--3-3--3--|

Bridge
e|---------------------------------------------------------------------------|
B|--13b-----11-----11--13b----11-----11--13b-----11--------------------------|
G|-------12-----12---------12-----12----------12-----12-10-12-10-------------|
D|---------------------------------------------------------------10-8--------|
A|---------------------------------------------------------------------------| b = Bend
E|---------------------------------------------------------------------------|

e|---------------------------------------------------------------------------|
B|--13b-----11-----11--13b----11-----11--13b-----11--13-11-------------------|
G|-------12-----12---------12-----12----------12-----------12-10-12-12-------|
D|---------------------------------------------------------------------------|
A|---------------------------------------------------------------------------|
E|---------------------------------------------------------------------------|

This is all you need to know
The song goes:

Intro P1, P2 & P3
Verse
Chorus P1 & P2
Bridge
Verse
Chorus P1 & P2
Bridge
Chorus P1 & P2 (P2 twice)
Intro P2

Finish on G
Tap to rate this tab
# A B C D E F G H I J K L M N O P Q R S T U V W X Y Z