Song name
# A B C D E F G H I J K L M N O P Q R S T U V W X Y Z

Black Keys - Little Black Submarines tab

----------------------------------------------------------------------------
               Little Black Submarines - The Black Keys
----------------------------------------------------------------------------
Tabbed by: Challenger440

Tuning: Standard (EADGBe)

So this is my first tab (sorta).
Hope it's good..
There is already an excellent version of this as both tabs and chords, so
you can get the fingerpicking pattern for the acoustic and the chord
progression for the electric.
All that leaves is the solo. 
There's a lot of gain to make the guitar really scream and the bass is 
turned down a bit.

(2:27-2:36)
e|-------------------------------------------------------------------------|
B|--------------8b10-------------------------------------------------------|
G|--7b9-7b9-7b9------7b9-7p5---7b9-7b9-------------------------------------|
D|---------------------------7---------------------------------------------|
A|--(pick on the seventh fret, then pick the string again -----------------|
E|-- during the bend for every -7b9- in this phrase)-----------------------|

(2:44-2:47)
e|-------------------------------------------------------------------------|
B|-------------------------------------------------------------------------|
G|-------------------------------------------------------------------------|
D|--5h7p5------------------------------------------------------------------|
A|--------7-5h7p5----------------------------------------------------------|
E|----------------8-5------------------------------------------------------|

(2:55-2:57)
e|-------------------------------------------------------------------------|
B|-------------------------------------------------------------------------|
G|--7sb9--(slow bend to the ninth fret, repeatedly-------------------------|
D|--------picking the string as you bend it)-------------------------------|
A|-------------------------------------------------------------------------|
E|-------------------------------------------------------------------------|

(3:05-3:08)
e|-------------------------------------------------------------------------|
B|-------------------------------------------------------------------------|
G|-------------------------------------------------------------------------|
D|--5h7p5------------------------------------------------------------------|
A|--------7-5h7p5----------------------------------------------------------|
E|----------------8-5------------------------------------------------------|

(3:27-3:35)
e|-------------------------------------------------------------------------|
B|--------------8b10-------------------------------------------------------|
G|--7b9-7b9-7b9------7b9-7b9-----------------------------------------------|
D|-------------------------------------------------------------------------|
A|--(pick on the seventh fret, then pick the string again -----------------|
E|-- during the bend for every -7b9- in this phrase)-----------------------|


These next two phrases are really tricky and these are as authentic as I can
get. Really, anything in the Am pentatonic should work but these will get
you fairly close to the original version.
(3:37-3:46)
e|-------------------------------------------------------------------------|
B|--8b10-8p5---5-----------------------------------------8-5-8b10----------|
G|-----------7---7b9-5-7-7b9-7p5-------------------7-5---------------------|
D|----------------^--------------5h7-5-7-7-7-5-7-------7-------------------|
A|-----(pick three times rapidly)----------------7-------------------------|
E|-------------------------------------------------------------------------|

(3:48-3:57)
e|-------------------------------------------------------------------------|
B|------5-8----(really can't get this part.. Sorry)------------------------|
G|--7b9--------------------------------------------------------------------|
D|-------------(I am open to suggestions if anyone can get it)-------------|
A|-------------------------------------------------------------------------|
E|-------------------------------------------------------------------------|

(3:58-4:08
e|-------------------------------------------------------------------------|
B|--------------8b10-------------------------------------------------------|
G|--7b9-7b9-7b9------7b9-7b9-5h7p5-----------------------------------------|
D|---------------------------------7--5h7p5--------------------------------|
A|--(same thing as before ------------------7------------------------------|
E|-- for the -7b9-'s)------------------------------------------------------|

Tap to rate this tab
 
# A B C D E F G H I J K L M N O P Q R S T U V W X Y Z