Song name
# A B C D E F G H I J K L M N O P Q R S T U V W X Y Z

Black Keys - Sinister Kid tab

I just decided to tab this. Couldn't find it and I thought I'd do you guys a favour. 
Well, here you go. When the tab has this ->| that shows one full 4/4 measure. Sorry if 
they're a little uneven.

|-h-|= hammer-on
|-p-|= pull-off
|-/-|= slide up
|-\-|= slide down
|-b-|= bend string
|-br-|= bend, then bend down to original note
|-*-|= palm-muted (under note)
|-~-|= hold note untill the next
Intro:
I like to play along with the bass till the guitar kicks in.

e|-----------|--------------|
B|-----------|--------------|
G|-----------|-9-9--7--5----|  x4
D|------7-7--|--------------|
A|-----------|--------------|
E|-5--5-----5|------------3-|

Now the fun part.

e|----------|---------|---------|---------------|-------------|----------|
B|----------|---------|---------|---------------|-------------|----------|
G|----------|-----5---|-7~------|-7h9-7--5h7-5--|---------5---|----------|
D|-7~-----7-|-7-----7-|---------|---------------|-7p5-5h7---7-|--7--5-2--|
A|----------|---------|---------|---------------|-------------|----------|
E|----------|---------|---------|---------------|-------------|----------|

e|------------|---------|
B|------------|---------|
G|------------|---------|
D|------------|---------|
A|------------|---------|
E|-12--10p8-5-|-3/5~----|

Verse: There's a lot of palm-muting on the A string. (Listen for timing. Especially when 
you play the non-muted parts.)

e|---------|-----------|---------|-----------|
B|---------|-----1h3-1-|---------|-----------|
G|---------|-----------|---------|----2----2-|
D|---------|-----------|---------|-----------|
A|-0-0-0-0-|-0-0-------|-0-0-0-0-|-0-0--0-0--|
E|---------|-----------|---------|-----------|
   * * * *   * *         * * * *   * ** * **
e|---------|---------|---------|---------|
B|---------|---------|---------|---------|
G|---------|---------|---------|---------|
D|---------|---------|---------|---------|
A|-0-0-0-0-|-0-0-0-0-|-0-0-0-0-|-0-0-0-0-|
E|---------|---------|---------|---------|
   * * * *   * * * *   * * * *   * * * *

e|---------|------------|---------|---------|
B|---------|------------|---------|---------|
G|---------|-------0~-h2|---------|---------|
D|---------|------------|---------|---------|
A|-0-0-0-0-|-0-0-0------|-0-0-0-0-|-0-0-0-0-|
E|---------|------------|---------|---------|
   * * * *   * * *        * * * *   * * * *

e|---------|---------|---------|---------|
B|---------|---------|---------|---------|
G|---------|---------|---------|---------|
D|---------|---------|---------|---------|
A|-0-0-0-0-|-0-0-0-0-|-0-0-0-0-|-0-0-0-0-|
E|---------|---------|---------|---------|
   * * * *   * * * *   * * * *   * * * *

Chorus: You could either play the bass line again, or just palm mute the A string. That 
is, untill you hit, "That's me..." Here's the " That's me..." part. (Played along with 
Dan's singing. Except for last part. It starts on "Devil..." not "The".)

e|---|-----------|---------|------------|------------|------------|------|
B|---|-----------|---------|------------|------------|------------|------|
G|---|-----------|---------|------------|------------|------------|------|
D|-7-|-7~------7-|-7~------|-7--7-7-7-2-|-5--7~----7-|--7~------7-|-7~---|
A|---|-----------|---------|------------|------------|------------|------|
E|---|-----------|---------|------------|------------|------------|------|

e|-------------|
B|-------------|
G|-9p7-5--7--5-|
D|------------7|
A|-------------|
E|-------------|

Verse: Same as first

Chorus: Same as first

Solo: Thanks to In-Flight-Radio
[With Slide]
e|-------17-17-17-17--15/17--15---------------------------------------------|
B|-/17---------------------------17/15--------------------------------------|
G|--------------------------------------17--------14~--/13-/13-/13----------|
D|--------------------------------------------/14-------------------/14~----|
A|--------------------------------------------------------------------------|
E|--------------------------------------------------------------------------|

e|-----------------------------------17----17----17----17--17/20--17--------|
B|-------------------------------/17----17----17----17----------------------|
G|--12-----12/14------------------------------------------------------------|
D|------14------------------------------------------------------------------|
A|--------------------------------------------------------------------------|
E|--------------------------------------------------------------------------|

e|--------------------------------------------------------------------------|
B|--17-17-/17-15-13---------------------------------------------------------|
G|------------------12----12/14---------------------------------------------|
D|---------------------14---------------------------------------------------|
A|--------------------------------------------------------------------------|
E|--------------------------------------------------------------------------|

      [with fingers]
e|--------------------------------------------------------------------------|
B|--------------------8----8h10-8-----8-8--8/10-10-10-/10-------------------|
G|---5-7b-7-5-7---7/9------9----9--/9------9/11-11-11-/9--------------------|
D|-7------------------------------------------------------------------------|
A|--------------------------------------------------------------------------|
E|--------------------------------------------------------------------------|

e|--------------------------------------------------------------------------|
B|----5-7b-7-5-8------------------------------------------------------------|
G|--7------------7b-7-5-7-5-7-------5---------------------------------------|
D|----------------------------7-5-7---7-5-----------------------------------|
A|----------------------------------------7-5-3-5-7-3-----------------------|
E|----------------------------------------------------5---------------------|

One last Chorus

Thank you! Any comments or changes, email me at blackkeysboy@hotmail.com.
Tap to rate this tab
 
# A B C D E F G H I J K L M N O P Q R S T U V W X Y Z