Song name
# A B C D E F G H I J K L M N O P Q R S T U V W X Y Z

Black Keys - Give Your Heart Away tab

Tabbed by: JTR

Tuning: Standard

Intro/Chorus

e|---------------------------------------------------------------------------|
B|---------------------------------------------------------------------------|
G|---------------------------------------------------------------------------|
D|----------------------------------------------5----------------------------|
A|-------5-/-6-/-7---5-/-6-/-7-----5-----5h7-------7--5----------------------|
E|-------0-----------0----------------7-------------------7---5b-------------|

e|---------------------------------------------------------------------------|
B|---------------------------------------------------------------------------|
G|---------------------------------------------------------------------------|
D|-------------------------------------------5---7b---5h7h5------------------|
A|-------5-/-6-/-7---5-/-6-/-7---5-----5h7-------------------5---------------|
E|-------0-----------0--------------7----------------------------------------|


e|---------------------------------------------------------------------------|
B|---------------------------------------------------------------------------|
G|---------------------------------------------------------------------------|
D|----------------------------------------------5----------------------------|
A|-------5-/-6-/-7---5-/-6-/-7-----5-----5h7-------7--5----------------------|
E|-------0-----------0----------------7-------------------7---5b-------------|

e|---------------------------------------------------------------------------|
B|---------------------------------------------------------------------------|
G|---------------------------------------------------------------------------|
D|---------------------------------------------------------------------------|
A|-------5-/-6-/-7---5-/-6-/-7-----5-----5-----------------7~----------------|
E|-------0-----------0----------------7--------3---4---5---------------------|

All Verses

e|---------------------|
B|---------------------|
G|---------------------|
D|---------------------|
A|-----------------7~--|
E|----7--7---3--5------|X6 for verse portions

Important!!!!
There is a fluxuation in the verse tab that looks like this:
e|---------------------------------|
B|---------------------------------|
G|---------------------------------|
D|---------------------------------|
A|---7~-----------------7~s10s7~---|
E|--------7--7---3--5--------------|
Tap to rate this tab
# A B C D E F G H I J K L M N O P Q R S T U V W X Y Z