Song name
# A B C D E F G H I J K L M N O P Q R S T U V W X Y Z

Black Keys - The Baddest Man Alive tab

***********************************************
The Black Keys & RZA - The Baddest Man Alive
***********************************************

Key: Am
Tuning: Standard

Not sure if this is played on a bass or a guitar but it sounds good either way. It also 
sounds better if you add a perfect 5th to some of the notes. Everything tabbed by ear.

This plays throughout the whole song:
e|---------------12--12--12---|
B|--13--13--13---13--13--13---|
G|--14--14--14----------------|
D|----------------------------|
A|----------------------------|
E|----------------------------|


Intro:
e|---------------|
B|---------------|
G|---------------|
D|---------------|
A|----5-5-5------|
E|--5-------8-5--|

e|---------------|
B|---------------|
G|---------------|
D|---------------|    x3
A|------5--------|
E|--5-8----8-5-5-|

Verse:
I could take the pitchfork from the devil...
e|---------------|
B|---------------|
G|---------------|
D|---------------|    x4
A|------5--------|
E|--5-8----8-5-5-|

From the deep, blue sea to the dark blue sky...
e|---------------|
B|---------------|
G|---------------|
D|----------7-7--|    x2
A|------5---5-5--|
E|--5-8---8------|

I'm the baddest man alive...
e|---------------|
B|---------------|
G|---------------|
D|---------------|    x2
A|------5--------|
E|--5-8----8-5---|

(Repeat three times for each verse)
Tap to rate this tab
 
# A B C D E F G H I J K L M N O P Q R S T U V W X Y Z