Song name
# A B C D E F G H I J K L M N O P Q R S T U V W X Y Z

Black Keys - Keep Your Hands Off Her tab

Tuning:Standard
Capo 2nd fret


More of a guide, to base the song around.
Dan changes it all the time,but this is the basis to work from.
Pretty sure its spot on in that respect.

Play the low e with your thumb, muted with your palm when appropriate to fill the sound out.
He plays the low e with the thumb live, but not on the record as theres two guitar parts.



                      (rake/sweep)
e|----------------------0-------------------------------------------------------|
B|------------------------0-----------------------------------------------------|
G|-----2/4\2p0-2/4----------4\2p0--------0h2p0--0h2-0---------------------------|
D|--------------------------------0h2----------0--------0h2-0h2-----------------|
A|------------------------------------------------------------------------------|
E|----X------X--------------------X-------X----X--------X----X------------------|


e|--------------------------------------------------------------------------------|
B|---0---3--3h5--3--0--3----------------------------------------------------------|
G|-------------------------4\2--0-------------------------------------------------|
D|--------------------------------------------------------------------------------|
A|--------------------------------------------------------------------------------|
E|---X---X---X---X--X---X--X----X-------------------------------------------------|
A|--------------------------------------------------------------------------------|
E|--------------------------------------------------------------------------------|



************************************

| /   slide up
| \   slide down
| h   hammer-on
| p   pull-off
| ~   vibrato
| +   harmonic
| x   Mute note
| b   Bend
| pb  Pre-bend
| br  Bend release
| pbr Pre-bend release
| brb Bend release bend

************************************
Tap to rate this tab
# A B C D E F G H I J K L M N O P Q R S T U V W X Y Z