Song name
# A B C D E F G H I J K L M N O P Q R S T U V W X Y Z

Black Keys - Keep Your Hands Off Her tab

                                  ~~~~~~~~~~~~~~~~~~~~~~~~~~~~~~~~~~~~~~~~
                                           Keep Your Hands Off Her
                                             by: The Black Keys
                                  Chulahoma: The Songs of Junior Kimbrough
                                  ~~~~~~~~~~~~~~~~~~~~~~~~~~~~~~~~~~~~~~~~
Tabbed by: Connor O.
Tuning: Standard


Another Black Keys song off of Chulahoma. There are a couple of tabs up for this already
but they make zero sense to me. So I'm going to write my own tab that will hopefully be
easier to read. Sorry if I'm just adding fuel to the fire, making a worthless tab. Don't 
hesitate to p.m. or comment corrections/ideas. Please rate it if you like/nothing/hate it.

Some notes:

There is a separate guitar, using a slide, that adds fills in a handful of spaces
throughout the song (e.g. listen carefully from 0:09 - 0:28). I'm not going to try and tab
that, sorry. It would just add a bunch of extra stuff onto this tab and most of you 
probably wouldn't care to see it anyways. You could probably pick it out yourself by ear if you
wanted to. I will tab the solos (both of which are done with slides). The main riff 
plays straight through both solos.

As far as slides/hammers/pulls go on this song, it's hard to say exactly when what
technique is used. I'm trying my best to interpret the record and I transcribe what sounds
most spot on to me. Use your own discretion and use whatever sounds best to you. The 
main riff is pretty straight forward. As for the riffs he plays while he sings, I use slides
because they're fluid and go along more with the song. Use delays on the slides 
sometimes too, to better accentuate the song and Dan's singing, e.g. hit a note let it ring a 
moment and then slide.

For example, at 0:35. She's mi-ine.......
                       5/7  5~/2



Key:

h- hammer on
p- pull off
/ or \ - slide up or down



Intro:

0:00  0:02                   0:07

e|------------------------------|
B|-7-3h5------5/7\5----5/7\5----|
G|-----------------66-------4h6-|
D|------------------------------|    Lead
A|------------------------------|
E|------------------------------|


e|------------------------------|
B|------------------------------|
G|-----------2/4-2--------------|  Background
D|------4---------44------------|    Slide
A|------------------------------|
E|------------------------------|


Verse 1:

  0:09 - 0:28

e|----------------0----------------------------|
B|----------------0----------------------------|
G|--4/6\4-2-4/6---6\4-2-----2h4p2-2h4--2-------|     X3
D|----------------------4--------4-------4-2h4-|
A|---------------------------------------------|
E|---------------------------------------------|


  0:28                                 0:35
  She's all mine                       She's mine, all mine, all mine
e|-----------------------------------------------------------------------|
B|--------------------------------------5/7--5/2-------------------------|
G|-2-4/6\4--2------2h4p2-2h4--2-------------------4/6-4/2-2/4-4/2--------|
D|-----------4--4-------4-------4-2h4--------------------4-------4--2h4--|
A|-----------------------------------------------------------------------|
E|-----------------------------------------------------------------------|


  0:41                    0:44                     0:48
                          I love the way she walks, yea she walks good
e|-----------------------------------------------------------------------|
B|-------------------------5/7-7-5---------------------------------------|
G|--2h4p2-2h4--2-------------------6-4/2---------------------------------|
D|-------4-------4-2h4------------------4-----------2/4-2-4-2h4----------|
A|-----------------------------------------------------------------------|
E|-----------------------------------------------------------------------|


  0:49                    0:53
                          I love the way she talks, awww yea she talks good
e|-----------------------------------------------------------------------|
B|-------------------------5/7-7-5---------2-----------------------------|
G|--2h4p2-2h4--2-------------------6-4/2--2--4\2-------------------------|
D|-------4-------4-2h4-------------------4-------4-----2-4-2h4-----------|
A|-----------------------------------------------------------------------|
E|-----------------------------------------------------------------------|


  1:00                     1:04                            1:11
                           Keep your hands off of my girl, she don't belong to you
e|-------------------------------------------------------------------------------|
B|-------------------------5/7-7-7-5-5-------------------------------------------|
G|--2h4p2-2h4--2--------------------6-6---2h4p2-2h4--2-------4/6-4-2-6/4p2-------|
D|-------4-------4-2h4-------------------------4-------4-2h4---------------4-2h4-|
A|-------------------------------------------------------------------------------|
E|-------------------------------------------------------------------------------|


  1:16

e|------------------------------------0----------|
B|------------------------------------0----------|
G|--2h4p2-2h4--2--------4/6\4-2-4/6---6\4-2------|
D|-------4-------4-2h4---------------------4-----|
A|-----------------------------------------------|
E|-----------------------------------------------|


  1:22

e|----------------------------------------0------|
B|----------------------------------------0------|
G|--2h4p2-2h4--2------------4/6\4-2-4/6---6\4-2--|
D|-------4-------4-2h4p2-----------------------4-|
A|-----------------------------------------------|
E|-----------------------------------------------|


  1:27   ------------->Into Solo

e|-----------------------------------------------|
B|-----------------------------------------------|
G|--2h4p2-2h4--2---------------------------------|
D|-------4-------4-2h4---------------------------|
A|-----------------------------------------------|
E|-----------------------------------------------|


Solo 1:

  1:29               1:34                    1:40

e|------------------------------5----------------------------------------|
B|----------5----5----5/7---------7-5------------------------------------|
G|---4/6-------4----------------------6-2/4---2/4-2-2/4--6/2-------------|
D|----------------------------------------------------------2/4----------|
A|-----------------------------------------------------------------------|
E|-----------------------------------------------------------------------|


  1:44                       1:50

e|-----------------------------------------------------------------------|
B|-----------------------------------------------------------------------|
G|--4/6-4-2/4----2-4-2--------2-2/4-2------------------------------------|
D|--------------4-----4-4----4-------4-2-----2-2/4-----------------------|
A|-----------------------------------------4-----------------------------|
E|-----------------------------------------------------------------------|


Verse 2:

  1:55
  Love her, love her, love her
e|-------------------------------------------------------------------------------|
B|-5/7--5/2----------------------------------------------------------------------|
G|-----------4/6-4/2-2/4-4/2-----------2h4p2-2h4-2-----------2h4p2-2h4-2---------|
D|------------------4-------4---------------4------4-2h4----------4------4-2h4---|
A|-------------------------------------------------------------------------------|
E|-------------------------------------------------------------------------------|


  2:07                                                       2:16
  Love her, love her, love her
e|-------------------------------------------------------------------------------|
B|-5/7--5/2----------------------------------------------------------------------|
G|-----------4/6-4/2-2/4-4/2-----------2h4p2-2h4-2--------------2---2h4----------|
D|------------------4-------4--2/4----------4------4-2h4-----2h4-------4---------|
A|-------------------------------------------------------------------------------|
E|-------------------------------------------------------------------------------|


  2:19                                                   2:30
  Keep your hands off of my girl, she don't belong to you
e|-------------------------------------------------------------------------------|
B|-5/7-7-7-5-5------0-0-0--------------------------------------------------------|
G|----------6-6-----4-4-4-------4/6-4-2-6/4p2------------2h4p2-2h4-2-------------|
D|------------------0-0-0--------------------4-2h4------------4------4-2h4-------|
A|-------------------------------------------------------------------------------|
E|-------------------------------------------------------------------------------|


Solo 2:

  2:32         2:36              2:41                       2:50

e|-------------------------------------------------------------------------------|
B|-------------5/7---------------------------------------------------------------|
G|--4/9----------------4/9-------2/4-----2/4-------2/4-------2/4-2---------------|
D|-------------------------------------------4---------4-------------4-4---------|
A|-------------------------------------------------------------------------------|
E|-------------------------------------------------------------------------------|


  2:52                                          3:01
                                                (w/o slide)
e|-------------------------------------------------------------------------------|
B|-------------------------------------------------------------------------------|
G|----------------2/4\2----------------------------------------------------------|  END
D|-2---2-2/4---------------2--2/4----------------2--2h4--------------------------|
A|---4------------------4--------------------------------------------------------|
E|-------------------------------------------------------------------------------|
Tap to rate this tab
# A B C D E F G H I J K L M N O P Q R S T U V W X Y Z