Song name
# A B C D E F G H I J K L M N O P Q R S T U V W X Y Z

Black Keys - Meet Me In The City tab

                                  ~~~~~~~~~~~~~~~~~~~~~~~~~~~~~~~~~~~~~~~
                                           Meet Me in the City
                                             by: The Black Keys
                                  Chulahoma: The Songs of Junior Kimbrough
                                  ~~~~~~~~~~~~~~~~~~~~~~~~~~~~~~~~~~~~~~~~
Tabbed by: Connor O.
Tuning: Standard

My third Chulahoma tab. Although I really liked Spacy Ignigknot 's tab of this song and
think it's killer,  it isn't a complete tab. So, I wanted to try my hand at it. I wanted
to go through the whole song and lay it all out piece by piece as I've tried to do with 
my other Black Keys tabs.

There are two layered guitars. There is a lead with a mild amount of fuzz on it. The 2nd
guitar, which is pretty fuzzy and has some delay, plays the two solos and random little
fills throughout the song. I'll tab the lead and the solos as best I can. During the 
solos, the main riff keeps playing.

In the faster parts of the intro and outro it sounds like Dan uses ghost hammers (see
key for descrip.)
Feel free not to use them and play what sounds best to you. It just sounds to me like
some kind of hammer/pull is going on around those areas.

In the intro, at 1:27 & 2:37 it sounds like Dan plays a bassline with his thumb. Or
maybe somebody
layered a bass guitar on there. Idk, play it if you can, it sounds like the A string. I
get by without
it.

I put time indicators on each box so if something doesn't sound right go to the nearest
indicator and give it a few playbacks in Itunes or youtube or whatever you use. See if
you can hear what I heard. Let me know if you think something should be fixed.


please rate the tab.


Key:
where # represents a number

#h# - hammer
 h# - ghost hammer. don't attack with pick. just hammer onto it hard.
#p# - pull
/ \ - slides, up and down respectively.


Verse:

  0:10

e|-2-0---------------------------------------|
B|----h2-------------------------------------|
G|-------4p2---2-2h4---------2-4/6---2---2---|
D|-----------4-------4-----4---------2-4-----|
A|-------------------------------------------|
E|-------------------------------------------|


  0:19

e|-2-0-----------------------------------------------|
B|----h2---------------------------------------------|
G|-------4p2---2-2h4-----2---2--4/6--6\4p2---2-2h4---|
D|-----------4-------4-----4---------------4-------4-|
A|---------------------------------------------------|
E|---------------------------------------------------|


  0:28

E|---------------------------------------------------|
B|---------------------------------------------------|
G|-----2-------2-2-4/6--2-2-2-2h4--2-2-2-4/6--2-2-2--|
D|-2h4---4p2---4-2------2-4-2------2-4-2------2-4-2--|
A|---------------------------------------------------|
E|---------------------------------------------------|


  0:37
  Meet me oh mamma in the city
e|---------------------------------------------------|
B|---5/7-5-------------------------------------------|
G|----------4/6-4--2---4/6---------2-2-2-4/6--2-2-2--|
D|------------------4p2--------2h4-2-4-2------2-4-2--|
A|---------------------------------------------------|
E|---------------------------------------------------|


  0:45
  And see everything is so fine
e|---------------------------------------------------|
B|---5/7-5-------------------------------------------|
G|----------4/6-4--2--2h4----------2-2-2-4/6--2-2-2--|
D|------------------------4p2--2h4-2-4-2------2-4-2--|
A|---------------------------------------------------|
E|---------------------------------------------------|


  0:53
  We'll get together now darlin'
e|---------------------------------------------------|
B|---5/7-5-------------------------------------------|
G|----------4/6-4--2h4-------2-----2-2-2-4/6--2-2-2--|
D|--------------------4--2h4---4p2-2-4-2------2-4-2--|
A|---------------------------------------------------|
E|---------------------------------------------------|


  1:00
  Oh yes we will            (sounds like he kicks on some delay here,
                             and delays that 2nd group. See #'s 1-4)
e|---------------------------------------------------|
B|---------------------------------------------------|
G|-4-2h4-2---2----2-2-2-4/6---2-2-2-2h4--2-2-2-------|
D|---------4------2-4-2-------2-4-2------2-4-2-------|
A|---------------------------------------------------|
E|---------------------------------------------------|
        1            2           3          4

  1:09
  We'll make everything all right, now honey don't, oh honey don't
e|---------------------------------------------------|
B|---5/7-5-------------------------------------------|
G|----------4/6-4--2h4-4---2-4/6---6\4-2h4-----------|
D|-----------------------4-----------------4---------|
A|---------------------------------------------------|
E|---------------------------------------------------|


  1:18

E|---------------------------------------------------|
B|---------------------------------------------------|
G|-----2-------2-2-4/6--2-2-2-2h4--2-2-2-4/6--2-2-2--|
D|-2h4---4p2---4-2------2-4-2------2-4-2------2-4-2--|
A|---------------------------------------------------|
E|---------------------------------------------------|


  1:27
  Plehahee---hease Please don't leave me baby right now, right now, oh no no no
e|------------------------------------------------------------------------------------|
B|--7---5---5h7-----5h7-5-------------------------------------------------------------|
G|----6-------------------4/6-4--2h4-4p2--2---2--4/6--4/6--4--2h4-4p2------------2----|
D|------------------------------------------4-------------------------4-4-----2h4-4p2-|
A|------------------------------------------------------------------------------------|
E|------------------------------------------------------------------------------------|


Solo 1:

  1:42

e|-------------5---------7\9--7-5-----------------------------------------------------|
B|---------5h7---7p5--------------5-7---------------------------------------------5/7-|
G|--4/6---------------------------------4/6--2--4--------------4/6~\4--2--4/6---------|
D|-------------------------------------------------4-------2--------------------------|
A|------------------------------------------------------------------------------------|
E|------------------------------------------------------------------------------------|


Verse:

  1:58
  You got me baby, you got me darlin, you got me where you want me baby, girl I know you will
e|------------------------------------------------------------------------------------------|
B|------------------------------------------------------------------------------------------|
G|---2---2--4/6----2---2--2h4----2---2--4/6----2---2--2h4--2---2---2---2--4/6----2---2--2h4-|
D|-----4-------------4-------------4-------------4-----------4---4---4-------------4--------|
A|------------------------------------------------------------------------------------------|
E|------------------------------------------------------------------------------------------|


              2:14
              satisfy
e|---------------------------|
B|---------------------------|
G|-2---2------2h4-4p2---2----|
D|---4----------------4------|
A|---------------------------|
E|---------------------------|


  2:15
  Still begging you baby, don't leave me yeah
e|---------------------------------------------------------------------------|
B|---------------------------------------------------------------------------|
G|----2---2--4/6----2-----2--2h4----2-----2--4/6----2-----2----2h4-4p2---2---|
D|--4---4--------------4---------------4---------------4---------------4-----|
A|---------------------------------------------------------------------------|
E|---------------------------------------------------------------------------|


  2:26
                                         (increasing pick attack)
E|---------------------------------------------------------------------------|
B|---------------------------------------------------------------------------|
G|--2---2-4/6--2-2-2-2h4--2-2-2-4/6--2-2-2--2h4--2-2-2-2h4--2-2-2-4-4-4------|
D|----4--------2-4-2------2-4-2------2-4-2-------2-4-2------2-4-2------------|
A|---------------------------------------------------------------------------|
E|---------------------------------------------------------------------------|


  2:37
  Plehahee---hease Please don't leave me baby right now, right now, oh no no no
e|------------------------------------------------------------------------------------|
B|--7---5---5h7-----5h7-5-------------------------------------------------------------|
G|----6-------------------4/6-4--2h4-4p2--2---2--4/6--4/6--4--2h4-4p2------------2----|
D|------------------------------------------4-------------------------4-4-----2h4-4p2-|
A|------------------------------------------------------------------------------------|
E|------------------------------------------------------------------------------------|


Solo 2:

  2:53               (quick      2:59
                      slide)
e|-----------------------------------------------------7\9--5-----------5--7/9--5-------|
B|------------5/7---5--------------5h7-10--------10-----------7\5---5-7------------7\5--|
G|--4/6-----------6---4/6\4----4h6------------11----11----------------------------------|
D|--------------------------------------------------------------------------------------|
A|--------------------------------------------------------------------------------------|
E|--------------------------------------------------------------------------------------|


  3:08                                      3:12                         3:15
 (slower slide)
e|---7/9--------12/14--9-12-9\7---5h7-5-------------5-----------5-----------------------|
B|--------------------------------------7p5-----5h7---7p5---5h7---7p5-------------------|
G|-----------------------------------------------------------------------4/6-2-4-2-4/6\4|
D|--------------------------------------------------------------------------------------|
A|--------------------------------------------------------------------------------------|
E|--------------------------------------------------------------------------------------|


                                   3:19       3:22

e|---------------------------------------------5------5---5---5---5---5---5---5--5/7-7/9-5-|
B|-------------------------------------------7---7------7---7---7---7---7---7---7----------|
G|-2------2-4-2-4/6-2-----------2-4-2-4--4/6-----------------------------------------------|
D|---4----------------4\2---2h4------------------------------------------------------------|
A|-----------------------------------------------------------------------------------------|
E|-----------------------------------------------------------------------------------------|
                                       ^    ^
                                       ^    ^
                          a little tricky don't know if I got it.
                I think it's only one guitar but the delay just throws me off here.


e|-----------------------------2-0-----------------2------------------------------------|
B|---5-------2/4/6\4\2-------------h2--------------2------------------------------------|
G|-----6\4-------------4\2-----------4p2------------------------------------------------|   THE
D|---------------------------------------4p2h4------------------------------------------|   END
A|--------------------------------------------------------------------------------------|
E|--------------------------------------------------------------------------------------|
Tap to rate this tab
# A B C D E F G H I J K L M N O P Q R S T U V W X Y Z