Song name
# A B C D E F G H I J K L M N O P Q R S T U V W X Y Z

Black Keys - Till I Get My Way tab

                                  ~~~~~~~~~~~~~~~~~~~~~~~~~~~~~~~~~~~~~~~
                                             Till I Get My Way
                                             by: The Black Keys
                                              Rubber Factory
                                  ~~~~~~~~~~~~~~~~~~~~~~~~~~~~~~~~~~~~~~~~
Tabbed by: Connor O.
Tuning: Standard

Another Black Keys song tab for me. A lot of fuzz on this one. Word has it, Dan used the
Ibanez standard fuzz on this one. Good luck getting your hands on one of those, though.
My EHX Big Muff gets pretty close, but isn't quite as sputtery, even with my guitar
volume knob maxed and the muff settings jacked up. If you're trying to find a decent fuzz
pedal that's somewhat affordable, get some kind of Big Muff, the Ibanez FZ7, or one of
the ones from Way Huge. Analogman Sunface (or Peppermint) or EHX Green Russian if you've
got a higher budget. Check out the BlackKeysFanLounge and the forum on there if you're 
looking up a tone for a specific song or something. The place has been a big help to me.

I play the main riff with slides because I think it sounds cooler but you could just go
like this if you wanted to:

e|-----------------------------------------|
B|-----------------------------------------|
G|-----------------------------------------|
D|---------2h4-2---------------------------|
A|----------------2--2---0h2-0-------------|
E|--2--2-2-------------2-------------------|


Key:
where # represents a number

#h# - hammer
#p# - pull
/ \ - slides, up and down respectively.
#b# - bend from normal note up to achieve bended note.
#r# - release bend from bended note to normal note.



Intro:

  0:00

e|-------------------------------------------|
B|-------------------------------------------|
G|-------------------------------------------|
D|-------------------------------------------|
A|--7h9-9-9-9-9-9-9-9-9-9-9-9-9\0------------|
E|-------------------------------------------|


Verse:

  0:05 - 0:38

e|-------------------------------------------|
B|-------------------------------------------|
G|-------------------------------------------|
D|---------2/4-4\2---------------------------|
A|------------------2--2---0h2-0-------------|
E|--2--2-2---------------2-------------------|


Bridge:


e|-------------------------------------------|
B|-------------------------------------------|
G|-------------------------------------------|
D|---------2--4------------------------------|
A|---4--4--------2----2-2-0------------------|
E|-------------------------------------------|


Verse:

  0:43 - 1:07

e|-------------------------------------------|
B|-------------------------------------------|
G|-------------------------------------------|
D|---------2/4-4\2---------------------------|
A|------------------2--2---0h2-0-------------|
E|--2--2-2---------------2-------------------|




e|-------------------------------------------|
B|-------------------------------------------|
G|-------------------------------------------|
D|---------2--4------------------------------|
A|---4--4--------2----2-2-0------------------|
E|-------------------------------------------|


  1:13

e|-------------------------------------------|
B|-------------------------------------------|
G|-------------------------------------------|
D|---------2/4-4\2---------------------------|
A|------------------2--2---0h2-0-------------|
E|--2--2-2---------------2-------------------|


Solo:

  1:21
  (F# Major twice)
e|--2-2--------------------------------------|
B|--2-2-------7-5----------------------------|
G|--3-3---4b6-----6--4b6r4-------------------|
D|--4-4--------------------------------------|
A|--4-4--------------------------------------|
E|--2-2--------------------------------------|


 (First pick attack then continuous bend, tildes
  are just there to make it easier to read.)
e|--2-2--------------------------------------|
B|--2-2--------------------------------------|
G|--3-3---4b6~r5b6~r4b6r4--------------------|
D|--4-4--------------------------------------|
A|--4-4--------------------------------------|
E|--2-2--------------------------------------|




e|--2-2--------------------------------------|
B|--2-2-------5-7----------------------------|
G|--3-3---4/6-----4\2------------------------|
D|--4-4---------------4----------------------|
A|--4-4--------------------------------------|
E|--2-2--------------------------------------|



         (fuller release from first bend)
e|--2-2--------------------------------------|
B|--2-2--------------------------------------|
G|--3-3---4b6~r4b6~r4b6r4--------------------|
D|--4-4--------------------------------------|
A|--4-4--------------------------------------|
E|--2-2--------------------------------------|


Verse:

  1:30

e|-------------------------------------------|
B|-------------------------------------------|
G|-------------------------------------------|
D|---------2/4-4\2---------------------------|
A|------------------2--2---0h2-0-------------|
E|--2--2-2---------------2-------------------|


  1:34

e|-------------------------------------------|
B|-------------------------------------------|
G|-----------------------------4b------------|
D|---------2/4-4\2---------------------------|
A|------------------2--2---0h2---------------|
E|--2--2-2---------------2-------------------|


  1:38

e|--------------------------------7/9--------|
B|-------------------------------------------|
G|-------------------------------------------|
D|---------2/4-4\2---------------------------|
A|------------------2--2---0h2-0-------------|
E|--2--2-2---------------2-------------------|


  1:42

e|-------------------------------------------|
B|-------------------------------------------|
G|-------------------------------------------|
D|----2h4-2h4-4\2----------------------------|
A|----------------2--2---0h2-0---------------|
E|--2------------------2---------------------|


  1:45 - 2:01

e|-------------------------------------------|
B|-------------------------------------------|
G|-------------------------------------------|
D|---------2/4-4\2---------------------------|
A|------------------2--2---0h2-0-------------|
E|--2--2-2---------------2-------------------|




e|-------------------------------------------|
B|-------------------------------------------|
G|-------------------------------------------|
D|---------2--4------------------------------|
A|---4--4--------2----2-2-0------------------|
E|-------------------------------------------|


  2:07 - 2:22

e|-------------------------------------------|
B|-------------------------------------------|
G|-------------------------------------------|
D|---------2/4-4\2---------------------------|
A|------------------2--2---0h2-0-------------|
E|--2--2-2---------------2-------------------|




e|-----------------------------------2-------|
B|-----------------------------------2-------|
G|-----------------------------------3-------|  END
D|-----------------------------------4-------|
A|--7h9-9-9-9-9-9-9-9-9-9-9-9-9\0----4-------|
E|-----------------------------------2-------|
Tap to rate this tab
# A B C D E F G H I J K L M N O P Q R S T U V W X Y Z