Song name
# A B C D E F G H I J K L M N O P Q R S T U V W X Y Z

Black Keys - Leavin Trunk tab

                                  ~~~~~~~~~~~~~~~~~~~~~~~~~~~~~~~~~~~~~~~~
                                               Leavin' Trunk
                                             by: The Black Keys
                                           from: The Big Come Up
                                  ~~~~~~~~~~~~~~~~~~~~~~~~~~~~~~~~~~~~~~~~
Original Contribution by: Connor O.
Tuning: Standard

Pretty straight forward song. Like most other Black Keys songs, it's preferable to finger-pick it.
That's how Dan plays it, anyways.

Comment with ideas/corrections.

Please rate my tab


Key:
where # represents a fret number

#h# - hammer
#p# - pull
/ \ - slides, up and down respectively.
#b# - bend from normal note up to achieve bended note.
#r# - release bend from bended note to normal note.
#pb - pre bend, bend up a step and then play note and release



Intro:


e|-----------------------|
B|----6b--4h6p4----------|
G|---------------5-3-----|x2
D|-------------------5---|
A|-3---------------------|
E|-----------------------|




e|-----------------------|
B|---6pb--4h6p4----------|
G|--------------5-3------|x2 
D|------------------5----|
A|-3---------------------|
E|-----------------------|




e|-----------------------|
B|-----------------------|
G|---------------3---3---|
D|-----------3h5---5-----|
A|-3-3-3-3-3-------------|
E|-----------------------|




e|-----------------------|
B|---------------------6-|
G|---------------3-------|
D|-----------3h5---5s7---| X2
A|-3-3-3-3-3-------------|
E|-----------------------|




e|-----------------------|
B|-----------------------|
G|-----------6pb---------|
D|-----------------------|
A|-3-3-3-3-3-------------|
E|-----------------------|


Bridge:


e|-----------------------|
B|-----------------------|
G|-5-5-5-5-5------3---3--| X4
D|-5-5-5-5-5--3h5---5----|
A|-3-3-3-3-3-------------|
E|-----------------------|


Verse:


  Goin' upstairs to pack my 
e|-----------------------|
B|-----------------------|
G|-5-5-5-5-5------3---3--| 
D|-5-5-5-5-5--3h5---5----|
A|-3-3-3-3-3-------------|
E|-----------------------|



  Leavin' Trunk
e|-----------------------|
B|-----------------------|
G|-5-5-5-5-5------3---3--| 
D|-5-5-5-5-5--3h5---5----|
A|-3-3-3-3-3-------------|
E|-----------------------|



  Ain't seen no whiskey
e|-----------------------|
B|-----------------------|
G|-5-5-5-5-5------3---3--| 
D|-5-5-5-5-5--3h5---5----|
A|-3-3-3-3-3-------------|
E|-----------------------|



  Woman make me sloppy
e|-----------------------|
B|-----------------------|
G|-5-5-5-5-5------3---3--| 
D|-5-5-5-5-5--3h5---5----|
A|-3-3-3-3-3-------------|
E|-----------------------|



  Seen no whiskey
e|--------------------------------------------|
B|--------------------------------------------|
G|-------------------------------------3---3--|
D|-3-3-3-3-3-----1---1--3-3-3-3-3--3h5---5----|
A|-3-3-3-3-3-1h3---3----3-3-3-3-3-------------|
E|-1-1-1-1-1------------1-1-1-1-1-------------|



  Woman
e|-----------------------|
B|-----------------------|
G|-5-5-5-5-5------3---3--| 
D|-5-5-5-5-5--3h5---5----|
A|-3-3-3-3-3-------------|
E|-----------------------|



  Made me drunk
e|-----------------------|
B|-----------------------|
G|-5-5-5-5-5------3---3--| 
D|-5-5-5-5-5--3h5---5----|
A|-3-3-3-3-3-------------|
E|-----------------------|


 
  Goin' back home
e|--------------------------------------------|
B|--------------------------------------------|
G|-------------------------------------3---3--|
D|-5-5-5-5-5-----1---1--3-3-3-3-3--3h5---5----|
A|-5-5-5-5-5-1h3---3----3-3-3-3-3-------------|
E|-3-3-3-3-3------------1-1-1-1-1-------------|



  Where I had
e|-----------------------|
B|-----------------------|
G|-5-5-5-5-5------3---3--| 
D|-5-5-5-5-5--3h5---5----|
A|-3-3-3-3-3-------------|
E|-----------------------|



  Much Better Luck
e|-----------------------|
B|-----------------------|
G|-5-5-5-5-5------3---3--| 
D|-5-5-5-5-5--3h5---5----|
A|-3-3-3-3-3-------------|
E|-----------------------|



Repeat Verse:



Look here darlin'

You want me to be your King

Say "You can't darlin'..

..you gotta keep it hid"

Don't let your main man

Up and

Catch me here

(Repeat final three parts again)

Don't let your main man

Up and

Catch me here



Repeat Intro:



Solo:


e|-------------------8---|
B|--------------6b8------|
G|-5-5-5-5-5-------------|
D|-5-5-5-5-5-------------|
A|-3-3-3-3-3-------------|
E|-----------------------|


e|-----------6-----------|
B|-------------6/8-6-4---|
G|-5-5-5-5-5-----------5-|
D|-5-5-5-5-5-------------|
A|-3-3-3-3-3-------------|
E|-----------------------|


e|-----------6b8---------|
B|-----------------------|
G|-5-5-5-5-5-------------|
D|-5-5-5-5-5-------------|
A|-3-3-3-3-3-------------|
E|-----------------------|


e|-----------------------|
B|-----------6pb---------|
G|-5-5-5-5-5-------------|
D|-5-5-5-5-5-------------|
A|-3-3-3-3-3-------------|
E|-----------------------|


e|-------------------------|
B|-----------6b8r6p4---4h6-|
G|-------------------5-----|
D|-3-3-3-3-3---------------|
A|-3-3-3-3-3---------------|
E|-1-1-1-1-1---------------|


e|----------------8-----8----|
B|-----------6b-8---6-8---6b-|
G|---------------------------|
D|-3-3-3-3-3-----------------|
A|-3-3-3-3-3-----------------|
E|-1-1-1-1-1-----------------|


e|-------------------------|
B|-----------6b8r6p4---4h6-|
G|-5-5-5-5-5---------5-----|
D|-5-5-5-5-5---------------|
A|-3-3-3-3-3---------------|
E|-------------------------|


e|---------------------------|
B|-----------6b8-6h8-6h8-6h8-|
G|-5-5-5-5-5-----------------|
D|-5-5-5-5-5-----------------|
A|-3-3-3-3-3-----------------|
E|---------------------------|
(Bend then 3 hammers)


e|-----------6-------------|
B|-------------8\6-6-4-----|
G|---------------------5---|
D|-5-5-5-5-5---------------|
A|-5-5-5-5-5---------------|
E|-3-3-3-3-3---------------|


e|-----------6-------------|
B|-------------8\6-4---4h6-|
G|-------------------5-----|
D|-3-3-3-3-3---------------|
A|-3-3-3-3-3---------------|
E|-1-1-1-1-1---------------|


e|-------------------------|
B|-----------6b8r6p4---4h6-|
G|-5-5-5-5-5---------5-----|
D|-5-5-5-5-5---------------|
A|-3-3-3-3-3---------------|
E|-------------------------|


e|-------------------------|
B|-------------------------|
G|-5-5-5-5-5------3-----3--|
D|-5-5-5-5-5--3h5---3h5----|
A|-3-3-3-3-3---------------|
E|-------------------------|



Outro:


e|-----------------------|
B|----6b--4h6p4----------|
G|---------------5p3-----|x2
D|-------------------5---|
A|-3---------------------|
E|-----------------------|




e|-----------------------|
B|----6b--4h6p4----------|
G|---------------5p3-----|
D|-------------------5\0-|
A|-3---------------------|
E|-----------------------|




e|-----------------------|
B|-----------------------|
G|-5-5-5-5-5---------5---| END
D|-5-5-5-5-5---------5---|
A|-3-3-3-3-3---------3---|
E|-----------------------|
Tap to rate this tab
# A B C D E F G H I J K L M N O P Q R S T U V W X Y Z