Song name
# A B C D E F G H I J K L M N O P Q R S T U V W X Y Z

Black Keys - Everywhere I Go tab

                                  ~~~~~~~~~~~~~~~~~~~~~~~~~~~~~~~~~~~~~~~~
                                               Everywhere I Go
                                               The Black Keys
                                               Thickfreakness
                                  ~~~~~~~~~~~~~~~~~~~~~~~~~~~~~~~~~~~~~~~~


Original Contribution by: Connor O.
Tuning: Standard

Another Black Keys tab for me. It may be easiest to play the main riff with a 
barre shape on the 5th fret, on the bottom four strings. If you listen closely
later on, after 3:00, you can here an A note on the high E (e|----) string, it's
pretty faint though. Play the intro barring the bottom two strings. I'm pretty 
sure I've got the bass-line right on everything besides Solo 3. It's hard to 
keep the rhythm going steady with that one. 




Comment with ideas/corrections.

Please rate my tab


Key:
where # represents a fret number

#h# - hammer
#p# - pull
/ \ - slides, up and down respectively.
#b# - bend from normal note up to achieve bended note.
#r# - release bend from bended note to normal note.
~ - hold note
x - palm mute

Intro

  0:00

e|-5--------------------------5---------------------------------------------------------|
B|-5--8p5---------------------5--7p5------------------------------8~p5------------------|
G|--------7----------------------------5--5h7----5-5-------------------5h7--5-----------|
D|----0---0---7-5h7-5h7--------------0----0------0-0-5-7-7-7-7-----------------7-7-5h7--|
A|-0----------0-0---0---------0--0-------------------0-0-0-0-0-0--0----0----0--0-0-0----|
E|--------------------------------------------------------------------------------------|


Verse:

  0:18

e|-------------------------------------------------------------------------------------------------|
B|-----5-------------------------------5-------------------------------5---------------------------|
G|-------7p5---5h7-----5-----------------7p5---5h7-----5-----------------7p5---5h7-----5-----------|
D|-7---------7-------------7---5h7-----------7-------------7---5h7-----------7-------------7---5h7-|
A|-0---0---0---0---0---0---0---0---0---0---0---0---0---0---0---0---0---0---0---0---0---0---0---0---|
E|-------------------------------------------------------------------------------------------------|


  0:33  

e|--x--|
B|--x--|
G|-----|
D|-----|
A|-----|
E|-----|


  0:35

e|-----------------------------------------------------5-------------|
B|-----5-------------------------------5-----------------8p5---------|
G|-------7p5---5h7-----5-----------------7p5---5h7----------7b9r7-5--|
D|-7---------7-------------7---5h7-----------7-----------------------|
A|-0---0---0---0---0---0---0---0---0---0---0---0---0---0---0---0---0-|
E|-------------------------------------------------------------------|


  0:42
                                  
e|-------------------------------|
B|-5-----------------------------|
G|---7p5---5h7-----5-------------|
D|-------7-------------7---5h7---|X2
A|-0---0---0---0---0---0---0---0-|
E|-------------------------------|


  0:50
  Everywhere I go
e|-----------------------------------------------------------------|
B|---------------------------------5-------------------------------|
G|-----5---7---7-------5h7-----7-----7p5---5h7-----5---------------|
D|-7-------------------------------------7-------------7---5h7-----|
A|-0---0---0---0---0---0---0---0---0---0---0---0---0---0---0---0---|
E|-----------------------------------------------------------------|


  0:56
  They gotta think I know
e|-----------------------------------------------------------------|
B|---------------------------------5-------------------------------|
G|-----5---7---5h7p5-----------------7p5---5h7-----5---------------|
D|-7-------------------7---7-------------7-------------7---5h7-----|
A|-0---0---0---0---0---0---0---0---0---0---0---0---0---0---0---0---|
E|-----------------------------------------------------------------|


  1:04
  And everywhere I go
e|-----------------------------------------------------------------|
B|---------------------------------5-------------------------------|
G|-----5---7---7-------5h7-----5h7---7p5---5h7-----5---------------|
D|-7-------------------------------------7-------------7---5h7-----|
A|-0---0---0---0---0---0---0---0---0---0---0---0---0---0---0---0---|
E|-----------------------------------------------------------------| 


  1:12
  They gotta think I know
e|-----------------------------------------------------------------|
B|---------------------------------5-------------------------------|
G|-----5---7---5h7p5-----------------7p5---5h7---------------------|
D|-7-------------------7---7-------------7-------------------------|
A|-0---0---0---0---0---0---0---0---0---0---0---0-------------------|
E|-----------------------------------------------------------------|


Solo 1:

  1:16
  (delayed bass-line)
e|-------------------------------8-----------------------8---10----|
B|-----8-----8---8h10----------------10--------------10------------|
G|-7/9----9--------------------------------------------------------|
D|-----------------------------------------------------------------|
A|-0---0-----0---0---0---0---0---0---0---0---0---0---0---0---0-----|
E|-----------------------------------------------------------------|


  1:22
  (bass-line not delayed, just spaced to fit in the double digits) 
e|-10h11p10-8-------8h10--------8----8---------------8-------------|
B|--------------10----------------10-----10--10--------------------|
G|-----------------------------------------------------------------|
D|-----------------------------------------------------------------|
A|-0---0----0---0---0---0---0---0----0---0---0---0---0---0---0---0-|
E|-----------------------------------------------------------------|


  1:30

e|-------------------|
B|-------------------|
G|-9\7-----5h7---5---|
D|-----------------7-|
A|-0---0---0---0---0-|
E|-------------------|


Verse:

  1:33  

e|-------------------------------------------------------------------|
B|-----5-------------------------------5---------------5/7-----7\5---|
G|-------7p5---5h7-----5-----------------7p5---5h7-----5/7-----7\5---|
D|-----------7-------------7---5h7-----------7-----------------------|
A|-0---0---0---0---0---0---0---0---0---0---0---0---0---0---0---0---0-|
E|-------------------------------------------------------------------|


  1:40

e|-------------------------------|
B|-5-----------------------------|
G|---7p5---5h7-----5-------------| X2
D|-------7-------------7---5h7---|
A|-0---0---0---0---0---0---0---0-|
E|-------------------------------|


  1:48
  My little baby       (8\7 is very fast)
e|-----------------------------------------------------------------|
B|-------------8-------------------5-------------------------------|
G|-----5---7---------------8\7-------7p5---5h7-----5---------------|
D|-7-------------------------------------7-------------7---5h7-----|
A|-0---0---0---0---0---0---0---0---0---0---0---0---0---0---0---0---|
E|-----------------------------------------------------------------|
                          

  1:55
  Now let me tell you what I want baby
e|-----------------------------------------------------------------|
B|-------------8---5---------------------------5-------------------|
G|-----5---7-------5---7---5---5h7p5-------------7p5---5-----------|
D|-7-----------------------------------7---7---------7-------------|
A|-0---0---0---0---0---0---0---0---0---0---0---0---0---0---0-------|
E|-----------------------------------------------------------------|


  2:02
  My little baby
e|-----------------------------------------------------------------|
B|-------------8-------------------5-------------------------------|
G|-----5---7---------------8\7-------7p5---5h7-----5---------------|
D|-7-------------------------------------7-------------7---5h7-----|
A|-0---0---0---0---0---0---0---0---0---0---0---0---0---0---0---0---|
E|-----------------------------------------------------------------|


  2:09
  Now let me tell you what I want baby
e|-----------------------------------------------------------------|
B|-------------8---5---------------------------5-------------------|
G|-----5---7-------5---7---5---5h7p5-------------7p5---5-----------|
D|-7-----------------------------------7---7---------7-------------|
A|-0---0---0---0---0---0---0---0---0---0---0---0---0---0---0-------|
E|-----------------------------------------------------------------|


  2:18

e|-----------------------------------------------------------------|
B|-5-------------------------------5---------------5---------------|
G|---7p5---5h7-----5-----------------7p5---5h7---------------5-----|
D|-------7-------------7---5h7-----------7---------------5h7-------|
A|-0---0---0---0---0---0---0---0---0---0---0---0---0---0---0---0---|
E|-----------------------------------------------------------------|


  2:25

e|-----------------------------------------------------------------|
B|-5-------------------------------5-------------------------------|
G|---7p5---5h7-----5-----------------7p5---5-----------------------| 
D|-------7-------------7---5h7-----------7-------------------------|
A|-0---0---0---0---0---0---0---0---0---0---0-----------------------|
E|-----------------------------------------------------------------|


Solo 2:

  2:30

e|-----------------------------------------------------------------|
B|-------8-----8-------------------------8-------------------------|
G|-7/9---------9-------------------7/9---------9/7-----------------|
D|-----------------------------------------------------------------|
A|-0---0---0---0---0---0-------0---0---0---0---0---0---0-------0---|
E|-------------------------3-------------------------------3-------|


  2:36

e|-----------------------------------------------------------------|
B|-------8-----8h10----------------------8-------------------------|
G|-7/9-----------------------------7/9---------9/7-----------------|
D|-----------------------------------------------------------------|
A|-0---0---0---0---0---0-------0---0---0---0---0---0---0---0-------|
E|-------------------------3---------------------------------------|


  2:43

e|-------------------|
B|-------------------|
G|-5/9\5-------------|
D|--------7---5------|
A|-0------0---0---5--|
E|-------------------|


Bridge:

  2:46

e|-------------------------------------------------------------------|
B|-----5-------------------------------5---------------5/7-----7\5---|
G|-------7p5---5h7-----5-----------------7p5---5h7-----5/7-----7\5---|
D|-----------7-------------7---5h7-----------7-----------------------|
A|-0---0---0---0---0---0---0---0---0---0---0---0---0---0---0---0---0-|
E|-------------------------------------------------------------------|


  2:53
 
e|-----------------------------------------------------------------|
B|-5-------------------------------5-------------------------------|
G|---7p5---5h7-----5-----------------7p5---5-----------------------| 
D|-------7-------------7---5h7-----------7-------------------------|
A|-0---0---0---0---0---0---0---0---0---0---0-----------------------|
E|-----------------------------------------------------------------|


Solo 3:

  3:00

e|-----------------------------8-----------------------8---10------|
B|-------8-----8h10----------------10--------------10--------------|
G|-7/9-------------------------------------------------------------|
D|-----------------------------------------------------------------|
A|-0---0---0---0---0---0---0---0---0---0---0---0---0---0---0-------|
E|-----------------------------------------------------------------|


  3:05

e|-10h11p10-8-------8h10--------8----8-------8-------8------------------|
B|--------------10----------------10-----10--10----------------------10-|
G|----------------------------------------------------------------------|
D|----------------------------------------------------------------------|
A|-0---0----0---0---0---0---0---0----0---0---0---0---0---0---0---0---0--|
E|----------------------------------------------------------------------|


  3:13

e|-15----12~\8-10--8--8h10p8----------15-----12~\8-10--8--8h10p8--------|
B|---------------------------10----------------------------------10-----|
G|----------------------------------------------------------------------|
D|----------------------------------------------------------------------|
A|-0---0---0---0-------0---0---0---0---0---0---0---0---0---0---0---0----|
E|----------------------------------------------------------------------|


  3:21

e|-15----12\8--10--8---10--8---10--10/17---17--17--17--17--17--17--17---|
B|----------------------------------------------------------------------|
G|----------------------------------------------------------------------|
D|----------------------------------------------------------------------|
A|-0---0---0---0---0---0---0---0---0---0---0---0---0---0---0---0---0----|
E|----------------------------------------------------------------------|


  3:25
  (bend slightly)
e|-17--17--17----|
B|---------------|
G|---------------|
D|---------------|
A|-0---0---0-----|
E|---------------|


Verse:

  3:28  

e|-----------------------------------------------------5-------------|
B|-----5-------------------------------5---------------5-8p5---------|
G|-----5-7p5---5h7-----5-----------------7p5---5h7----------7b9r7-5--|
D|-----------7-------------7---5h7-----------7-----------------------|
A|-0---0---0---0---0---0---0---0---0---0---0---0---0---0---0---0---0-|
E|-------------------------------------------------------------------|


  3:35
                                  
e|-------------------------------|
B|-5-----------------------------|
G|---7p5---5h7-----5-------------| X2
D|-------7-------------7---5h7---|
A|-0---0---0---0---0---0---0---0-|
E|-------------------------------|

  
  3:41
  And everywhere I go
e|-----------------------------------------------------------------|
B|---------------------------------5-------------------------------|
G|-----5---7---7-------5h7-----7-----7p5---5h7-----5---------------|
D|-7-------------------------------------7-------------7---5h7-----|
A|-0---0---0---0---0---0---0---0---0---0---0---0---0---0---0---0---|
E|-----------------------------------------------------------------|


  3:47
  They gotta think I know
e|-----------------------------------------------------------------|
B|---------------------------------5-------------------------------|
G|-----5---7---5h7p5-----------------7p5---5h7-----5---------------|
D|-7-------------------7---7-------------7-------------7---5h7-----|
A|-0---0---0---0---0---0---0---0---0---0---0---0---0---0---0---0---|
E|-----------------------------------------------------------------|


  3:56
  And everywhere I go
e|-----------------------------------------------------------------|
B|---------------------------------5-------------------------------|
G|-----5---7---7-------5h7-----5h7---7p5---5h7-----5---------------|
D|-7-------------------------------------7-------------7---5h7-----|
A|-0---0---0---0---0---0---0---0---0---0---0---0---0---0---0---0---|
E|-----------------------------------------------------------------| 


  4:03 
  They gotta think I know
e|-----------------------------------------------------------------|
B|---------------------------------5-------------------------------|
G|-----5---7---5h7p5-----------------7p5---5-----------------------|
D|-7-------------------7---7-------------7-------------------------|
A|-0---0---0---0---0---0---0---0---0---0---0---0-------------------|
E|-----------------------------------------------------------------|


Solo 4:

  4:10

e|---------------------8------------------------8----8---8h10-8h10-------|
B|-10----8/10--10--------------------------8/10---10---------------------|
G|-9-----------9---------------------------------------------------9\7---|
D|-----------------------------------------------------------------------|
A|-0---0---0---0---0---0---0---0---0---0---0----0----0---0----0----0---0-|
E|-----------------------------------------------------------------------|


Verse:

  4:19

e|-----5-------------------------------5---------------5-------------|
B|-----5-------------------------------5---------------5-8p5---------|
G|-------7p5---5h7-----5-----------------7p5---5h7----------7b9r7-5--|
D|-----------7-------------7---5h7-----------7-----------------------|
A|-0---0---0---0---0---0---0---0---0---0---0---0---0---0---0---0---0-|
E|-------------------------------------------------------------------|


  4:27

e|-----5-------------------------------------------------------------|
B|-----5-------------------------------5---------------5/7-----7\5---|
G|-------7p5---5h7-----5-----------------7p5---5h7-----5/7-----7\5---|
D|-----------7-------------7---5h7-----------7-----------------------|
A|-0---0---0---0---0---0---0---0---0---0---0---0---0---0---0---0---0-|
E|-------------------------------------------------------------------|


  4:33

e|-----5---------------5-----------|
B|-----5---------------5-8p5-------|
G|-------7p5---5h7-----------5-----|
D|-----------7-------------------5-|
A|-0---0---0---0---0---0---0---0---|
E|---------------------------------|


  4:38

e|-5-------------------------------|
B|-5-------------------------------|
G|---7p5---5h7-----5---------------| X2
D|-------7-------------7---5h7-----|
A|-0---0---0---0---0---0---0---0---|
E|---------------------------------|


  4:44

e|-5---------------|
B|-5---------------|
G|---7p5---5-------| 
D|-------7---------|
A|-0---0---0---0---|
E|-----------------|


Solo 5:

  4:46

e|-----------------------------8---------------15----12-----15----|
B|-----8-------8h10-----------------------------------------------|
G|-7/9-----9------------------------------------------------------|
D|----------------------------------------------------------------|
A|-0---0---0---0---0---0---0---0---0---0---0---0---0----0---0---0-|
E|----------------------------------------------------------------|


  4:53

e|-12\8----8h10p8------------------------|
B|-----------------10------------5---5---|
G|-------------------------9\7p5-5h7-5---|
D|-------------------------------------7-|
A|-0---0---0---0---0---0---0---0---0---0-|
E|---------------------------------------|


Outro:

  4:56

e|---------------------------------|
B|-5-------------------------------|
G|---7p5---5h7-----5---------------| 
D|-------7-------------7---5h7-----|
A|-0---0---0---0---0---0---0---0---|
E|---------------------------------|


  5:00

e|-5-------------------------------|
B|-5-------------------------------|
G|---7p5---5h7-----5---------------| 
D|-------7-------------7---5h7-----|
A|-0---0---0---0---0---0---0---0---|
E|---------------------------------|


  5:04

e|-5---------------5---------------|
B|-5---------------5-----8---5-----|
G|---7p5---5h7---------------5-----| 
D|-------7-------------------------|
A|-0---0---0---0---0---0---0---0---|
E|---------------------------------|


  5:08

e|-5---------------------|
B|-5---------------------|
G|---7p5---7-------5-----| 
D|-------7-------------7-|
A|-0---0---0---0---0---0-|
E|-----------------------|


  5:11
  (Drums stop)
e|---------------------------------|
B|-5-------------------------------|
G|---7p5---5h7-----5---------------| 
D|-------7-------------7---5h7-----|
A|-0---0---0---0---0---0---0---0---|
E|---------------------------------|


  5:15

e|---------------------------------|
B|-5-------------------------------|
G|---7p5---7-------5---------------| 
D|-------7-------------7---5h7-----|
A|-0---0---0---0---0---0---0---0---|
E|---------------------------------|


  5:18

e|-5-------------------------------|
B|-5-------------------------------|
G|---7p5---5h7-----5---------------| 
D|-------7-------------7---5h7-----|
A|-0---0---0---0---0---0---0---0---|
E|---------------------------------|


  5:23

e|-5-----------------------------------------|
B|-5-----------------------------------------|
G|---7p5---5h7---------5---------------------| 
D|-------7-------------------7-----5-----5h7-|
A|-0---0---0-----0-----0-----0-----0-----0---|
E|-------------------------------------------|


  5:29

e|-5--------------------------3p5p3--/5\3/5\3----------5-8-|
B|-5-8~p5---------------------5--------------------5h8-----|
G|--------7~p5---------------------------------------------| END
D|-------------7p5-----------------------------------------|
A|-----------------7\5p3-----------------------------------|
E|-----------------------3---------------------------------|
Tap to rate this tab
 
# A B C D E F G H I J K L M N O P Q R S T U V W X Y Z