Song name
# A B C D E F G H I J K L M N O P Q R S T U V W X Y Z

Black Keys - Brooklyn Bound tab

                                  ~~~~~~~~~~~~~~~~~~~~~~~~~~~~~~~~~~~~~~~~
                                               Brooklyn Bound
                                             by: The Black Keys
                                           from: The Big come Up
                                  ~~~~~~~~~~~~~~~~~~~~~~~~~~~~~~~~~~~~~~~~
Tabbed by: Connor O.
Tuning: Double Drop D (DADGBD)
Effects: Just fuzz and reverb. Get some trebley fuzz going, along with some
reverb, and play on your bridge pickup. 


The song is definitely in Drop D. I think it's in Double Drop D. Having a D
on the high string makes the riff easier to play later on when things get
faster. 

I'm certain there is a bass guitar layered on here, (listen closely to the solos) 
which makes some of the verse portions, e.g. 0:19, hard to transcribe. I've spent 
a lot of hours analyzing it, playing it and listening to the song at different 
speeds using software. I've transcribed to the best of my ability, and feel like 
it's spot on. 

As for the solos, e.g. 1:20, I play them on the lower strings. It's sounds better 
and I think it's how it should be. Alternatively, you could play it like this 
so you can play closer to the main riff's location:

d|---------------3---3b------------3/5-3-----------|
B|----1b-3---------3-------3-------------3---1/3---|
G|--2--------------------------------------2-------|
D|-------------------------------------------------|
A|-------------------------------------------------|
D|-------------------------------------------------|


Comment with ideas/corrections. Please rate my tab


Key:
where # represents a fret number

#h# - hammer
#p# - pull
/ \ - slides, up and down respectively.
#b# - bend from normal note up to achieve bended note.
#r# - release bend from bended note to normal note.



Intro:

  0:09

d|--------------------------------------------------|
B|--------------------------------------------------|
G|------------------------------5/7-----------------|
D|--5b7r5p3---------5----3---------------5----3-----|
A|----------5p3-----5--------------------5----------|
D|---------------5--5--3---0----------5--5--3---0---| 


  0:14

d|------------------------------------------------0-|
B|--------------------------------------------------|
G|--------------------------------------------------|
D|--5b7r5p3---------5----3------5b7------5----3-----|
A|----------5p3-----5--------------------5----------|
D|---------------5--5--3b--0----------5--5--3b--0---| 


Verse 1:

  0:19
  Well I hate to leave you      hate to put you down
d|---------------------------------------------------------|
B|---------------------------------------------------------|
G|---------------------------------------------------------|
D|---------------------------------------5----------5------|
A|---------------------------------------5----------5------|
D|--0--3-3--3--3h5-5--3----0--3-3--3-3h5-5--3----5--5--3-0-|


  0:24

d|--------------------------------------------------|
B|--------------------------------------------------|
G|------------------------------5/7-----------------|
D|--5b7r5p3---------5----3---------------5----3-----|
A|----------5p3-----5--------------------5----------|
D|---------------5--5--3b--0----------5--5--3b--0---| 


  0:30

d|------------------------------------------------0-|
B|--------------------------------------------------|
G|--------------------------------------------------|
D|--5b7r5p3---------5----3------5b7------5----3-----|
A|----------5p3-----5--------------------5----------|
D|---------------5--5--3b--0----------5--5--3b--0---| 


  0:35
  But the way you love darlin'      Lord I'm Brooklyn Bound
d|---------------------------------------------------------|
B|---------------------------------------------------------|
G|---------------------------------------------------------|
D|-----------------5---------------------5----------5------|
A|-----------------5---------------------5----------5------|
D|--0--3-3--3--3h5-5--3----0--3-3--3-3h5-5--3----5--5--3-0-|


  0:40

d|-------------------------------------------------|
B|-------------------------------------------------|
G|-------------------------------------------------|
D|--5b7r5p3---------5----3-------5b7-----5----3----|
A|----------5p3-----5--------------------5---------|
D|---------------5--5--3b--0----------5--5--3b--0--| 


  0:45

d|-------------------------------------------------|
B|-------------------------------------------------|
G|-------------------------------5/7---------------|
D|--5b7-5p3---------5----3---------------5----3----|
A|----------5p3-----5--------------------5---------|
D|---------------5--5--3b--0----------5--5--3b--0--| 


  0:50
  I ain't got  no money               no house on that hill
d|---------------------------------------------------------|
B|---------------------------------------------------------|
G|---------------------------------------------------------|
D|---------------------------------------5-----------------|
A|---------------------------------------5-----------------|
D|--0--3-3--3--3h5-5--3------0--3-3/5-5--5--3----5-5-3-0---|


  0:56

d|-------------------------------------------------|
B|-------------------------------------------------|
G|-------------------------------------------------|
D|--5b7r5p3---------5----3-------5b7-----5----3----|
A|----------5p3-----5--------------------5---------|
D|---------------5--5--3b--0----------5--5--3b--0--| 


  1:01

d|-------------------------------------------------|
B|-------------------------------------------------|
G|--5/7--------------------------------------------|
D|----------5----3-------5b7r5p3---------5----3----|
A|----------5--------------------5p3-----5---------|
D|-------5--5--3b--0------------------5--5--3b--0--| 


  1:06
  But that way you love darlin'        lord you give me my fill
d|---------------------------------------------------------|
B|---------------------------------------------------------|
G|---------------------------------------------------------|
D|---------------------------------------5-----------------|
A|---------------------------------------5-----------------|
D|--0--3-3--3--3h5-5--3------0--3-3/5-5--5--3----5-5-3-0---|


  1:11

d|------------------------0---------------------0--|
B|-------------------------------------------------|
G|-------------------------------------------------|
D|--5b7r5p3---------5-------------5b7-----5--------|
A|----------5p3-----5---------------------5--------|
D|---------------5--5--3b--------------5--5--3b----| 


  1:15

d|------------------------0-------------------------------|
B|--------------------------------------------------------|
G|--------------------------------------------------------|
D|--5b7r5p3---------5-------------5b7r5p3---------5-----0-|
A|----------5p3-----5---------------------5p3-----5-----0-|
D|---------------5--5--3b----------------------5--5--3b---| 
                                                       

Solo 1:

  1:20
             (quick)                     
d|-------------------------------------------------|
B|------------6---6b----------6/8-6----------------|
G|---5b-7-------7------7------------7---5/7--------|
D|-7----------------------------------7------------|
A|-------------------------------------------------|
D|-------------------------------------------------|


  1:25

d|------------------------0---------------------------0---|
B|--------------------------------------------------------|
G|--------------------------------------------------------|
D|--5b7r5p3---------5-----------5b7r5p3---------5---------|
A|----------5p3-----5-------------------5p3-----5---------|
D|---------------5--5--3b--------------------5--5--3b-----| 


  1:30

d|----------------0---------------------------------------|
B|--------------------------------------------------------|
G|------------------------------5/7~\5--------------------|
D|--5b7-----5---------------------------------------------|
A|----------5-----------------------------------3---------|
D|-------5--5--3b-----------------------0-5-0-3---0-------| 


  1:35

d|-------------------------------------------------|
B|------------6---6b----------6/8-6----------------|
G|---5b-7-------7------7------------7---5/7--------|
D|-7----------------------------------7------------|
A|-------------------------------------------------|
D|-------------------------------------------------|


  1:40

d|------------------------0---------------------------0---|
B|--------------------------------------------------------|
G|--------------------------------------------------------|
D|--5b7r5p3---------5-----------5b7r5p3---------5---------|
A|----------5p3-----5-------------------5p3-----5---------|
D|---------------5--5--3b--------------------5--5--3b-----| 


Verse 2:

  1:45
  Well I'm leavin' here babe             Can't say fare you well
d|---------------------------------------------------------|
B|---------------------------------------------------------|
G|---------------------------------------------------------|
D|---------------------------------------5-----------------|
A|---------------------------------------5-----------------|
D|--0--3-3--3--3h5-5--3------0--3-3/5-5--5--3----5-5-3-0---|
                                                 

  1:49

d|------------------------0---------------------0--|
B|-------------------------------------------------|
G|-------------------------------------------------|
D|--5b7r5p3---------5------------5b7-----5---------|
A|----------5p3-----5--------------------5---------|
D|---------------5--5--3b-------------5--5--3b-----| 


  1:53

d|------------------------0--------------------0---|
B|-------------------------------------------------|
G|-------------------------------5/7---------------|
D|--5b7r5p3---------5--------------------5---------|
A|----------5p3-----5--------------------5---------|
D|---------------5--5--3b-------------5--5--3b-----| 


  1:58
  Well I'm goin' out east darlin'        Hope you burn in hell
d|---------------------------------------------------------|
B|---------------------------------------------------------|
G|---------------------------------------------------------|
D|---------------------------------------5-----------------|
A|---------------------------------------5-----------------|
D|--0--3-3--3--3h5-5--3------0--3-3/5-5--5--3----5-5-3-0---|


Solo 2/Outro:

  2:03
  
d|------------------------0---------------------0--|
B|-------------------------------------------------|
G|-------------------------------------------------|
D|--5b7r5p3---------5------------5b7-----5---------|
A|----------5p3-----5--------------------5---------|
D|---------------5--5--3b-------------5--5--3b-----| 


  2:08

d|------------------------0--------------------0---|
B|-------------------------------------------------|
G|-------------------------------5/7---------------|
D|--5b7r5p3---------5--------------------5---------|
A|----------5p3-----5--------------------5---------|
D|---------------5--5--3b-------------5--5--3b-----| 


  2:12

d|-------------------------------------------------|
B|------------6---6b----------6/8-6----------------|
G|---5b-7-------7------7------------7---5/7--------|
D|-7----------------------------------7------------|
A|-------------------------------------------------|
D|-------------------------------------------------|


  2:17  

d|------------------------0---------------------------0---|
B|--------------------------------------------------------|
G|--------------------------------------------------------|
D|--5b7r5p3---------5-----------5b7r5p3---------5---------|
A|----------5p3-----5-------------------5p3-----5---------|
D|---------------5--5--3b--------------------5--5--3b-----| 


  2:22

d|----------------0-----------------------------------0---|
B|--------------------------------------------------------|
G|------------------------------5/7-----------------------|
D|--5b7-----5-----------------------------------5---------|
A|----------5-----------------------------------5---------|
D|-------5--5--3b----------------------------5--5--3b-----| 


  2:26

d|-------------------------------------------------|
B|------------6---6b----------6/8-6----------------|
G|---5b-7-------7------7------------7---5/7--------|
D|-7----------------------------------7------------|
A|-------------------------------------------------|
D|-------------------------------------------------|


  2:32

d|------------------------0---------------------0--|
B|-------------------------------------------------|
G|-------------------------------------------------|
D|--5b7r5p3---------5------------5b7-----5---------|
A|----------5p3-----5--------------------5---------|
D|---------------5--5--3b-------------5--5--3b-----| 


  2:36

d|------------------------0---------------------0--|
B|-------------------------------------------------|
G|-------------------------------------------------|
D|--5b7r5p3---------5------------5b7-----5---------|
A|----------5p3-----5--------------------5---------|
D|---------------5--5--3b-------------5--5--3b-----| 


  2:40
  (starting to see variation after this point)
d|--------------------------------7----------------|
B|------------6---6b----------6/8---6--------------|
G|---5b-7-------7------7--------------7-5/7--------|
D|-7-----------------------------------------------|
A|-------------------------------------------------|
D|-------------------------------------------------|


  2:45

d|------------------------0---------------------0--|
B|-------------------------------------------------|
G|-------------------------------------------------|
D|--5b7r5p3---------5------------5b7-----5---------|
A|----------5p3-----5--------------------5---------|
D|---------------5--5--3b-------------5--5--3b-----| 


  2:50

d|----------------0--------10/12~\10------------0--|
B|-------------------------------------------------|
G|-------------------------------------------------|
D|--5/7-----5----------------------------5---------|
A|----------5----------------------------5---------|
D|-------5--5--3b---------------------5--5--3b-----| 


  2:55

d|-------------------------10-7--------------------|
B|------------6---6b------------8-6-6h8p6----------|
G|---5b-7-------7------7------------------7--------|
D|-7-----------------------------------------------|
A|-------------------------------------------------|
D|-------------------------------------------------|


  2:59

d|------------------------0---------------------------0---|
B|--------------------------------------------------------|
G|--------------------------------------------------------|
D|--5b7r5p3---------5-----------5b7r5p3---------5---------|
A|----------5p3-----5-------------------5p3-----5---------|
D|---------------5--5--3b--------------------5--5--3b-----| 


  3:03

d|---------------------------------|
B|---------------------------------|
G|-----------------------------7---|
D|--5b7r5p3---------5----------7---|   END
A|----------5p3-----5----------5---|
D|---------------5--5--3b------x---| 
Tap to rate this tab
# A B C D E F G H I J K L M N O P Q R S T U V W X Y Z