Song name
# A B C D E F G H I J K L M N O P Q R S T U V W X Y Z

Black Keys - Keep Me tab

                                  ~~~~~~~~~~~~~~~~~~~~~~~~~~~~~~~~~~~~~~~
                                                  Keep Me
                                             by: The Black Keys
                                              Rubber Factory
                                  ~~~~~~~~~~~~~~~~~~~~~~~~~~~~~~~~~~~~~~~~
Tabbed by: Connor O.
Tuning: Open D (DADF#AD) 


For convenience, I'm just going to put F in the boxes instead of F#.



Key:
where # represents a number

#h# - hammer
#p# - pull
/ \ - slides, up and down respectively.
#b# - bend from normal note up to achieve bended note.
#r# - release bend from bended note to normal note.
=== - beneath chord box. Represents the use of a guitar slide.



Intro:


  0:00

d|-10/12-12-12\10----3b4---------0---0h2---------------|
A|-10/12-12-12\10--0-----3p0-3/5---0-------0-----------|
F|---------------------------------------x---1h3-1-0---|
D|-----------------------------------------------------|
A|-----------------------------------------------------|
D|-----------------------------------------------------|
   ==============

  0:05

d|-------------------------------------0-------0----3--|
A|-----------------------------------------0h2---0-----|
F|-----------------------------------------------------|
D|-0h2---0h2-0h2-0h2-------0------0--------------------|
A|-------------------0-3/5---0-------------------------|
D|-----------------------------3b---0------------------|



Verse:

 
  0:11

d|-----3p0-0-------3p0-0-------3p0-0-------------------|
A|-----0---0-------0---0-------0---0-------------------|
F|---0-----------0-----------0-----------0-------------|  X2
D|---0-----------0-----------0-----------0-------------|
A|-----------------------------------------------------|
D|-0-----------0-----------0-----------0-----3b--------|


  0:22


d|-----3p0-0-------3p0-0-------3p0-0-----0-------------|
A|-----0---0-------0---0-------0---0-------------------|
F|---0-----------0-----------0-------------0-----------| 
D|---0-----------0-----------0-------------0-----------|
A|-----------------------------------------------------|
D|-0-----------0-----------0-----------0-----3b--------|


  0:28

d|-----3p0-0-------3p0-0-------3p0-0-------------------|
A|-----0---0-------0---0-------0---0-------------------|
F|---0-----------0-----------0-----------0-------------|  
D|---0-----------0-----------0-----------0-------------|
A|-----------------------------------------------------|
D|-0-----------0-----------0-----------0-----3b--------|



Verse:


  0:33
  Keep me clean   
  Keep me warm
  Keep me soul away from harm 
d|-----3p0-0--|
A|-----0---0--|
F|---0--------|  X7
D|---0--------|
A|------------|
D|-0----------|


  0:42

d|------------|
A|------------|
F|---0--------|
D|---0--------|
A|------------|
D|-0-----3b---|


  0:44
  Keep the night  
  Keep the day
  Keep the in-between away 
d|-----3p0-0--|
A|-----0---0--|
F|---0--------|  X7
D|---0--------|
A|------------|
D|-0----------|


  0:53

d|------------|
A|------------|
F|---0--------|
D|---0--------|
A|----------0-|
D|-0-----3b---|



Solo 1:

  
  0:55

d|-------------3-----0-------------------------|
A|-3/5-5-5p3p0-----------3h5-3h5-0-3b-0--------|
F|--------------------------------------3\1p0--|
D|---------------------------------------------|
A|---------------------------------------------|
D|---------------------------------------------|



Bridge:


  1:01

d|-------3p0-0-----------------3p0-0-----------|
A|-------0---0-----------------0---0-----------|
F|---0-------------0---0-----0-----------0-----|
D|---0-------------0---0-----0-----------0-----|
A|---------------------------------------------|
D|-0---0---------0--3b-----0-----------0-----3b|



Verse 2:


  01:06
  Hold that second  
  HOld the time
  Hold that picture in your mind 
d|-----3p0-0--|
A|-----0---0--|
F|---0--------|  X7
D|---0--------|
A|------------|
D|-0----------|


  1:15

d|------------|
A|------------|
F|---0--------|
D|---0--------|
A|------------|
D|-0-----3b---|


  01:16
  Hold that smoke
d|-----3p0-0--|
A|-----0---0--|
F|---0--------|  
D|---0--------|
A|------------|
D|-0----------|


  1:17

d|--0-3-3-0-0-|
A|--0-0-0-5-5-|
F|------------|  
D|------------|
A|------------|
D|-0----------|


  1:18
  Hold the fire
  Hold all that now you desire
d|-----3p0-0--|
A|-----0---0--|
F|---0--------|  
D|---0--------|  X5
A|------------|
D|-0----------|


  1:25

d|------------|
A|------------|
F|---0--------|
D|---0--------|
A|------------|
D|-0-----3b-0-|



Solo 2:

  
  1:27

d|-------------3b--0-----0-----0--------------|
A|-3/5-5-5p3p0-------3/5---3/5---0-3-0--------|
F|--------------------------------------3\1-0-|
D|--------------------------------------------|
A|--------------------------------------------|
D|--------------------------------------------|


  1:33

d|-----0-------0--0h2-0h2-0h2-0---------------|
A|-------------0--0---0---0---0---3/5---------|
F|-1/3---3-3\1--------------------------------|
D|--------------------------------------------|
A|--------------------------------------------|
D|--------------------------------------------|
                                  ===


Bridge:


  1:38

d|-----3p0-0-------3p0-0-------3p0-0-----0-------------|
A|-----0---0-------0---0-------0---0-------------------|
F|---0-----------0-----------0-------------0-----------| 
D|---0-----------0-----------0-------------0-----------|
A|-----------------------------------------------------|
D|-0-----------0-----------0-----------0-----3b--------|


  1:43

d|--0-3-3-0-0-|
A|--0-0-0-0-0-|
F|------------|  
D|------------|
A|------------|
D|-0----------|


  1:45

d|-----3p0-0-------3p0-0----------------------|
A|-----0---0-------0---0----------------------|
F|---0-----------0-----------0----------------| 
D|---0-----------0-----------0----------------|
A|--------------------------------------------|
D|-0-----------0-----------0-----3b-----------|



Verse 3:


  01:49
  Show me trust
  Show me love
d|-----3p0-0--|
A|-----0---0--|
F|---0--------|  X3
D|---0--------|
A|------------|
D|-0----------|


  

d|-------0-------|
A|---------------|
F|---0-----------|
D|---0-----------|
A|---------------|
D|-0---3---0-0---|




Show me heaven up above


  1:59

d|----|
A|----|
F|----|
D|----|
A|----|
D|-3b-|


  Show your soul  
  Show your mind
  Show it to me all the time 
d|-----3p0-0--|
A|-----0---0--|
F|---0--------|  X7
D|---0--------|
A|------------|
D|-0----------|


  2:09

d|------------|
A|------------|
F|---0--------|
D|---0--------|
A|------------|
D|-0-----3b---|



Solo 3:

  
  2:10

d|-------------3b-----0-----------------------|
A|-3/5-5-5p3p0----------3h5-3h5-0-3b-0--------|
F|-------------------------------------3\1-0--|
D|--------------------------------------------|
A|--------------------------------------------|
D|--------------------------------------------|


  2:15

d|--------------12----------------10/12-15-12-15-12-15-12\---------------|
A|--------10/12----12\10----------10/12----------------------------------|
F|-10/12-----------------12-12\0---------------------------10/12-12-12\0-|
D|-10/12---------------------------------------------------10/12-12-12\0-|
A|-----------------------------------------------------------------------|
D|-----------------------------------------------------------------------|
  =======================================================================



Outro:


  2:21

d|-----3p0-0-------3p0-0-------3p0-0-------------------|
A|-----0---0-------0---0-------0---0-------------------|
F|---0-----------0-----------0-----------0-------------|  X2
D|---0-----------0-----------0-----------0-------------|
A|-----------------------------------------------------|
D|-0-----------0-----------0-----------0-----3b--------|


  2:32
 
d|-----3p0-0-------3p0-0-------3p0-0-----0-------------|
A|-----0---0-------0---0-------0---0-------------------|
F|---0-----------0-----------0-------------0-----------| 
D|---0-----------0-----------0-------------0-----------|
A|-----------------------------------------------------|
D|-0-----------0-----------0-----------0-----3b--------|


  2:37

d|-----3p0-0-------3p0-0-------3p0-0---------10/12v----------|
A|-----0---0-------0---0-------0---0---------10/12v----------|
F|---0-----------0-----------0--------0------10/12v---0----0-|  
D|---0-----------0-----------0--------0---------------0----0-|  END
A|-----------------------------------------------------------|
D|-0-----------0-----------0-------------3b-------------3b---|
Tap to rate this tab
# A B C D E F G H I J K L M N O P Q R S T U V W X Y Z