Song name
# A B C D E F G H I J K L M N O P Q R S T U V W X Y Z

Black Keys - Thickfreakness tab

                                  ~~~~~~~~~~~~~~~~~~~~~~~~~~~~~~~~~~~~~~~~
                                               Thickfreakness
                                               The Black Keys
                                               Thickfreakness
                                  ~~~~~~~~~~~~~~~~~~~~~~~~~~~~~~~~~~~~~~~~


Original Contribution by: Connor O.
Tuning: Standard
Effects: Fuzz (and lots of it)



Comment with ideas/corrections. Please rate my tab



Key:
where # represents a fret number

#h# - hammer
#p# - pull
/ \ - slides, up and down respectively.
#b# - bend from normal note up to achieve bended note.
#r# - release bend from bended note to normal note.
=== - under boxes, represents the use of a guitar slide
x   - mute
v   - vibrato



Intro:


  0:00

e|-------|
B|-------|
G|-------|
D|-------|
A|-3/12--|
E|-------|
   ====


Bridge:


  0:07

e|--------------------------------------------------------------|
B|--------------------------------------------------------------|
G|--------------------------------------------------------------|
D|-5h7-5-----------------------5h7-5----------------------------|
A|-------7-7\5-3-5-5p3p0-------------7-7\5-3-5-3h5-3h5-5p3p0----|
E|-----------------------3-5---------------------------------3--|


  0:14

e|-------------------------------------------------|
B|-------------------------------------------------|
G|-------------------------------------------------|
D|-5h7-5-----------------------5h7-5-------------5-|
A|-------7-7\5-3-5-5p3p0-------------7-7\5-3-5/7---|
E|-----------------------3-5-----------------------|



Verse 1:


  0:21

e|----------------------------------------------------------|
B|----------------------------------------------------------|
G|---2-----2-----2---2-----------2-----2-----2---2p0--------|
D|---2-----2-----2---2-----------2-----2-----2-------2p0----|
A|-0-----0-----0---------------0-----0-----0-------------3b-|
E|----------------------0-3-4-------------------------------|


  0:28

e|----------------------------------------------------------|
B|----------------------------------------------------------|
G|---2-----2-----2---2-----------2-----2-----2--------------|
D|---2-----2-----2---2-----------2-----2-----2--------------|
A|-0-----0-----0---------------0-----0-----0----------------|
E|----------------------0-3-4-------------------------------|


  0:34
  well now here I am                           Well now here I am my darlin'
e|---------------------------------------------------3p0-------------------|
B|-----1---1h3-----1---------1-------------------1-------------3b4r3p1-----|
G|-2---------------------0h2---2---------------2-----------------------2---|
D|---------0---0---0---0---0---0-----------0-------0---0---0---0---0---0---|
A|---------------------------------3---3-----------------------------------|
E|-------------------------------------------------------------------------|


  0:41
 
e|----------------------------------------------------------|
B|----------------------------------------------------------|
G|---2-----2-----2---2-----------2-----2-----2---2p0--------|
D|---2-----2-----2---2-----------2-----2-----2-------2p0----|
A|-0-----0-----0---------------0-----0-----0-------------3b-|
E|----------------------0-3-4-------------------------------|


  0:48

e|----------------------------------------------------------|
B|----------------------------------------------------------|
G|---2-----2-----2---2-----------2-----2-----2---2----------|
D|---2-----2-----2---2-----------2-----2-----2---2----------|
A|-0-----0-----0---------------0-----0-----0----------------|
E|----------------------0-3-4-------------------------------|


  0:54
  Well I'll care for you                       Girl that's all I wanna do     
e|---------------------------------------------------3p0-------------------|
B|-----1---1h3-----1---------1-------------------1-------------3b4r3p1-----|
G|-2---------------------0h2---2---------------2-----------------------2---|
D|---------0---0---0---0---0---0-----------0-------0---0---0---0---0---0---|
A|---------------------------------3---3-----------------------------------|
E|-------------------------------------------------------------------------|


  1:01

 
e|----------------------------------------------------------|
B|----------------------------------------------------------|
G|---2-----2-----2---2-----------2-----2-----2---2p0--------|
D|---2-----2-----2---2-----------2-----2-----2-------2p0----|
A|-0-----0-----0---------------0-----0-----0-------------3b-|
E|----------------------0-3-4-------------------------------|


  1:08

e|----------------------------------------------------------|
B|----------------------------------------------------------|
G|---2-----2-----2---2-----------2-----2-----2---2----------|
D|---2-----2-----2---2-----------2-----2-----2---2----------|
A|-0-----0-----0---------------0-----0-----0----------------|
E|----------------------0-3-4------------------------3-2----|


  1:20
   Hold me        Love me in your heart
e|------------------------------------|
B|-3h5---3--------1h3---1---3/5-3\1---|
G|----------------------------------2-|
D|------------------------------------|
A|------------------------------------|
E|-----------3b-----------------------|


  1:22

e|----------------------------------------------------------|
B|----------------------------------------------------------|
G|---2-----2-----2---2-----------2-----2-----2---2------2---|
D|---2-----2-----2---2-----------2-----2-----2---2------2---|
A|-0-----0-----0---------------0-----0-----0----------------|
E|----------------------0-3-4------------------------3b-----|



Bridge:


  1:28

e|--------------------------------------------------------------|
B|--------------------------------------------------------------|
G|--------------------------------------------------------------|
D|-5h7-5-----------------------5h7-5----------------------------|
A|-------7-7\5-3-5-5p3p0-------------7-7\5-3-5-3h5-3h5-5p3p0----|
E|-----------------------3-5---------------------------------3--|


  1:35

e|-------------------------------------------------|
B|-------------------------------------------------|
G|-------------------------------------------------|
D|-5h7-5-----------------------5h7-5-------------5-|
A|-------7-7\5-3-5-5p3p0-------------7-7\5-3-5/7---|
E|-----------------------3-5-----------------------|



Solo 1:


Rhythym: (Bass EQ)


 1:41

e|---------------------------------------------|
B|---------------------------------------------|
G|---------------------------------------------|
D|-7--X-X-X--7-5--X-X-X--5-7--X-X-X-X-X-X-X--5-|  X4
A|-7--X-X-X--7-5--X-X-X--5-7--X-X-X-X-X-X-X--5-|
E|-5--X-X-X--5-3--X-X-X--3-5--X-X-X-X-X-X-X--3-|
     


Main: (Treble EQ)


  1:43

e|----------5-------------------------------------------------|
B|------------8p5---------------------------------------------|
G|-------7b-------7bpr7-5---------------7b9r5-5h7p5-7b9r7p5---|
D|--5h7v--------------------5-5h7---5h7---------------------7-|
A|------------------------------------------------------------|
E|------------------------------------------------------------|


  1:56
 
e|-------------------------------------------------------7\---|
B|-------------8-----------------------------------------7\---|
G|---------7/9-----------5-------------------------------7\---|
D|-5h7---------------5/7---5/7---5-5/7~v---7p5-----------7\---|
A|-----------------------------7---------------7p5-3----------|
E|---------------------------------------------------5--------|
                     =================


                                    e|-5----------------------|
                                    B|-5----------------------|
                                    G|-6----------------------|
Rhythm ends cycle and joins in here D|-7---7p5----------------|  
                                    A|-7-------7p5-3----------|
                                    E|-5-------------5--------|



Verse 2:


  2:12
  well I'll hold you near                     and I'll whisper in your ear
e|---------------------------------------------------3p0-------------------|
B|-----1---1h3-----1---------1-------------------1-------------3b4r3p1-----|
G|-2---------------------0h2---2---------------2-----------------------2---|
D|---------0---0---0---0---0---0-----------0-------0---0---0---0---0---0---|
A|---------------------------------3---3-----------------------------------|
E|-------------------------------------------------------------------------|


  2:19
 
e|----------------------------------------------------------|
B|----------------------------------------------------------|
G|---2-----2-----2---2-----------2-----2-----2---2p0--------|
D|---2-----2-----2---2-----------2-----2-----2-------2p0----|
A|-0-----0-----0---------------0-----0-----0-------------3b-|
E|----------------------0-3-4-------------------------------|


  2:26

e|----------------------------------------------------------|
B|----------------------------------------------------------|
G|---2-----2-----2---2-----------2-----2-----2---2----------|
D|---2-----2-----2---2-----------2-----2-----2---2----------|
A|-0-----0-----0---------------0-----0-----0----------------|
E|----------------------0-3-4-------------------------------|


  2:31
  Now I'll take your hand                       and we'll make me understand     
e|---------------------------------------------------3p0-------------------|
B|-----1---1h3-----1---------1-------------------1-------------3b4r3p1-----|
G|-2---------------------0h2---2---------------2-----------------------2---|
D|---------0---0---0---0---0---0-----------0-------0---0---0---0---0---0---|
A|---------------------------------3---3-----------------------------------|
E|-------------------------------------------------------------------------|


  2:40
 
e|----------------------------------------------------------|
B|----------------------------------------------------------|
G|---2-----2-----2---2-----------2-----2-----2---2p0--------|
D|---2-----2-----2---2-----------2-----2-----2-------2p0----|
A|-0-----0-----0---------------0-----0-----0-------------3b-|
E|----------------------0-3-4-------------------------------|


  2:46

e|----------------------------------------------------------|
B|----------------------------------------------------------|
G|---2-----2-----2---2-----------2-----2-----2---2----------|
D|---2-----2-----2---2-----------2-----2-----2---2----------|
A|-0-----0-----0---------------0-----0-----0----------------|
E|----------------------0-3-4------------------------3-2----|


  2:53
   Hold me        Love me in your heart
e|------------------------------------|
B|-3h5---3--------1h3---1---3/5-3\1---|
G|----------------------------------2-|
D|------------------------------------|
A|------------------------------------|
E|-----------3b-----------------------|


  2:59

e|---------------------------------------------------------|
B|---------------------------------------------------3/5---|
G|---2-----2-----2---2-----------2-----2-----2---0-0-------|
D|---2-----2-----2---2-----------2-----2-----2-------------|
A|-0-----0-----0---------------0-----0-----0---------------|
E|----------------------0-3-4------------------------------|



Bridge/Outro:


  3:06

e|--------------------------------------------------------------|
B|--------------------------------------------------------------|
G|--------------------------------------------------------------|
D|-5h7-5-----------------------5h7-5----------------------------|  X3
A|-------7-7\5-3-5-5p3p0-------------7-7\5-3-5-3h5-3h5-5p3p0----|
E|-----------------------3-5---------------------------------3--|


  3:26

e|----------------------------------|  
B|----------------------------------|  
G|----------------------------------|  
D|-5h7-5----------------------------|  
A|-------7-7\5-3-5-5p3p0------------|  
E|-----------------------3~/5-------|


  3:29
 
e|-----------------------------------------|
B|-----------------------------------------|
G|-----------------------------------------|
D|-5h7-5-----------------------7------7/14-|  END
A|-------7-7\5-3-5-5/7-5-3-----7------7/14-|   
E|-------------------------3---5------5/12-|
Tap to rate this tab
 
# A B C D E F G H I J K L M N O P Q R S T U V W X Y Z