Song name
# A B C D E F G H I J K L M N O P Q R S T U V W X Y Z

Black Keys - Nobody But You tab

                                  ~~~~~~~~~~~~~~~~~~~~~~~~~~~~~~~~~~~~~~~~
                                               Nobody But You
                                             by: The Black Keys
                                  Chulahoma: The Songs of Junior Kimbrough
                                  ~~~~~~~~~~~~~~~~~~~~~~~~~~~~~~~~~~~~~~~~
Tabbed by: Connor O.
Tuning: Standard



Like with all other Chulahoma songs, it's hard to know if this is exactly
how it's played as there is no live footage (that I could find) of it
being played. Also like other Chulahoma (Kimbrough in general, really)
songs, it's just following a certain pattern on a pentatonic scale. 

That being said, I'm confident in this tab's accuracy because it's
easy for me to play it this way and it sounds spot on with the 
recorded version.

Comment/message with corrections/ideas. Please rate my tab.



Key:
where # represents a fret number

#h# - hammer
#p# - pull
/ \ - slides, up and down respectively.
#b# - bend from normal note up to achieve bended note.
#r# - release bend from bended note to normal note.
=== - under boxes, represents the use of a guitar slide



Intro:


  0:00

e|---------------------------------|
B|-------------1h3-----------------|
G|-----0---2---0-------0---0h2p0---|
D|-2-------------------------------|  X3
A|-0---0---0---0---0---0---0---0---|
E|---------------------------------|


  0:10

e|-3---------------------------------------------------------------|
B|-3---3/5-1---1h3-----1-----------------------1h3-----------------|
G|---------0---0-----------2p0---------0---2---0-------0---0h2p0---|
D|---------------------------------2-------------------------------|
A|-0---0---0---0---0---0---0---0---0---0---0---0---0---0---0---0---|
E|-----------------------------------------------------------------|


  0:16

e|-----------------------------------------------------------------|
B|-------------1---3/5-5\3-1-------------------1h3-----------------|
G|-----0---2---0-----------0-----------0---2-----------0---0h2p0---|
D|-2-------------------------------2-------------------------------| 
A|-0---0---0---0---0---0---0---0---0---0---0---0---0---0---0---0---|
E|-----------------------------------------------------------------|


  0:22

e|-3-------------------------------|
B|-----3/5-1---1h3-----1-----------|
G|-------------------------2p0-----|
D|---------------------------------|
A|-0---0---0---0---0---0---0---0---|
E|---------------------------------|



Verse 1:


  0:25
  Nobody babe
e|-----------------------------------------------------------------|
B|-------------1---3---------------------------1h3-----------------|
G|-----0---2-----------0---2-----------0---2-----------0---0h2-----|
D|-2-------------------------------2-------------------------------|  
A|-0---0---0---0---0---0---0---0---0---0---0---0---0---0---0---0---|
E|-----------------------------------------------------------------|


  0:30
  Nobody but you darlin'
e|-3---------------------------------------------------------------|
B|-----3/5-1---1h3~~~~p1-----------------------1h3-----------------|
G|-------------------------2-----------0---2-----------0---0h2-----|
D|---------------------------------2-------------------------------|
A|-0---0---0---0---0---0---0---0---0---0---0---0---0---0---0---0---|
E|-----------------------------------------------------------------|


  0:36
  Nobody babe
e|-----------------------------------------------------------------|
B|-------------1---3---------------------------1h3-----------------|
G|-----0---2-----------0---2-----------0---2---0-------0---0h2-----|
D|-2-------------------------------2-------------------------------|  
A|-0---0---0---0---0---0---0---0---0---0---0---0---0---0---0---0---|
E|-----------------------------------------------------------------|


  0:42
  Nobody but you darlin
e|-0---------------------------------------------------------------|
B|-3/5-3---1---1h3~~~~p1-----------------------1h3-----------------|
G|-------------------------2-----------0---2---0-------0---0h2-----|
D|---------------------------------2-------------------------------|
A|-0---0---0---0---0---0---0---0---0---0---0---0---0---0---0---0---|
E|-----------------------------------------------------------------|


  0:48
  On my mind
e|-----------------------------------------------------------------|
B|-1h3-----1---1-------------------------------1h3-----------------|
G|-0-------------2---------------------0---2---0-------0---0h2p0---|
D|---------------------------------2-------------------------------|
A|-0---0---0---0---0---0---0---0---0---0---0---0---0---0---0---0---|
E|-----------------------------------------------------------------|



Bridge


  0:53

e|---------------------------------|
B|-------------3/5-5\3-1-----------|
G|-----0---2---------------2p0-----|
D|-2-------------------------------| 
A|-0---0---0---0---0---0---0---0---|
E|---------------------------------|



Verse 2:


  0:56
  Baby
e|-----------------------------------------------------------------|
B|-------------1---3---------------------------1h3-----------------|
G|-----0---2-----------0---2-----------0---2-----------0---0h2-----|
D|-2-------------------------------2-------------------------------|  
A|-0---0---0---0---0---0---0---0---0---0---0---0---0---0---0---0---|
E|-----------------------------------------------------------------|


  1:01
  I need you darlin'
e|-----------------------------------------------------------------|
B|-3/5-3---1---1h3~~~~p1-----------------------1h3-----------------|
G|-------------------------2-----------0---2---0-------0---0h2-----|
D|---------------------------------2-------------------------------| 
A|-0---0---0---0---0---0---0---0---0---0---0---0---0---0---0---0---|
E|-----------------------------------------------------------------|


  1:07
  Baby
e|-3-------------------------------------------------------------------|
B|-----3/5\3---1-----------------------------------1h3-----------------|
G|-----------------------------------------0---2---0-------0---0h2-----|
D|-------------------------------------2-------------------------------|  
A|-0---0---0---0---0---0---0---0---0---0---0---0---0---0---0---0---0---|
E|---------------------------------------------------------------------|


  1:13
  I need you darlin'
e|---------------------------------------------------------------------|
B|-3/5-3---1---3/5\3p1-----------------------------1h3-----------------|
G|---------------------2-------------------0---2---0-------0---0h2-----|
D|-------------------------------------2-------------------------------|
A|-0---0---0---0---0---0---0---0---0---0---0---0---0---0---0---0---0---|
E|---------------------------------------------------------------------|


  1:18
  Nobody baby
e|---------------------------------------------------------------------|
B|-3/5-3p1-3/5\3p1---------------------------------1---3---------------|
G|-----------------2-----------------------0---2-----------0---2-------|
D|-------------------------------------2-------------------------------| 
A|-0---0---0---0---0---0---0---0---0---0---0---0---0---0---0---0---0---|
E|---------------------------------------------------------------------|


  1:24
  Nobody but you darlin'
e|-3---------------------------------------------------------------|
B|-----3/5-1---1h3~~~~p1-----------------------1h3-----------------|
G|-------------------------2-----------0---2---0-------0---0h2-----|
D|---------------------------------2-------------------------------|
A|-0---0---0---0---0---0---0---0---0---0---0---0---0---0---0---0---|
E|-----------------------------------------------------------------|


  1:30
  On my mind
e|-----------------------------------------------------------------|
B|-1h3-----1---1-------------------------------1h3-----------------|
G|-0---------------2-------------------0---2---0-------0---0h2p0---|
D|---------------------------------2-------------------------------| 
A|-0---0---0---0---0---0---0---0---0---0---0---0---0---0---0---0---|
E|-----------------------------------------------------------------|



Solo 1:


  1:35

e|-----------------------------3h5-----------------5---------------|
B|-------------3/5-3---1---3/5-------------------------5\3---------|
G|-----0---2-------------------------------------------------------|
D|-2---------------------------------------------------------------|  
A|-0---0---0---0---0---0---0---0---0---0---0---0---0---0---0---0---|
E|-----------------------------------------------------------------|


  1:40

e|-----3-------3h5-3-----------------------------------------------|
B|-3/5-----5-----------3---1-----------------------1---3-----------|
G|-----------------------------2p0---------0---2-----------0---0h2-|
D|-------------------------------------2---------------------------|
A|-0---0---0---0---0---0---0---0---0---0---0---0---0---0---0---0---|
E|-----------------------------------------------------------------|


  1:46

e|-----------------------------3---3h5---------8b------------------|
B|-----------------1h3-1---3/5---------------------10-8------------|
G|-----2p0-----0h2--------------------------------------9----------|
D|---------2-------------------------------------------------------|
A|-0---0---0---0---0---0---0---0---0---0---0---0---0----0---0------|
E|-----------------------------------------------------------------|
                                                   ^    ^            
                                       *extended to fit double digit*
  1:52

e|-----8-------8h10-8----------------------------------------------|
B|-8h10----10-----------10\8--8-----------------1---1h3------------|
G|--------------------------9---9\------2---0h2---------0---0h2----|
D|-----------------------------------------------------------------|
A|-0---0---0---0----0---0---0---0---0---0---0---0---0---0---0---0--|
E|-----------------------------------------------------------------|
               ^    ^            
               *extended to fit double digit*
  1:57

e|-3-------------------------------|
B|-----3/5-1---1h3-----1-----------|
G|-------------------------2p0-----|
D|---------------------------------|
A|-0---0---0---0---0---0---0---0---|
E|---------------------------------|



Verse 3:


  2:00
  Baby
e|-----------------------------------------------------------------|
B|-------------1---3---------------------------1h3-----------------|
G|-----0---2-----------0---2-----------0---2-----------0---0h2-----|
D|-2-------------------------------2-------------------------------|  
A|-0---0---0---0---0---0---0---0---0---0---0---0---0---0---0---0---|
E|-----------------------------------------------------------------|


  2:06
  I'm on my knees
e|-----------------------------------------------------------------|
B|-------------1---3---------------------------1h3-----------------|
G|-----0---2-----------0---2-----------0---2-----------0---0h2-----|
D|-2-------------------------------2-------------------------------|  
A|-0---0---0---0---0---0---0---0---0---0---0---0---0---0---0---0---|
E|-----------------------------------------------------------------|


  2:12
  I'm beggin you babe
e|---------------------------------------------------------------------|
B|-3/5-3---1---3/5\3p1-----------------------------1h3-----------------|
G|---------------------2-------------------0---2-----------0---0h2-----|
D|-------------------------------------2-------------------------------|
A|-0---0---0---0---0---0---0---0---0---0---0---0---0---0---0---0---0---|
E|---------------------------------------------------------------------|


  2:17
  Don't leave me darlin
e|---------------------------------------------------------------------|
B|-3/5-3---1---3/5\3p1-----------------------------1h3-----------------|
G|---------------------2-------------------0---2-----------0---0h2-----|
D|-------------------------------------2-------------------------------|
A|-0---0---0---0---0---0---0---0---0---0---0---0---0---0---0---0---0---|
E|---------------------------------------------------------------------|


  2:23
  If you leave me babe
e|-----------------------------------------------------------------|
B|-------------1---3---------------------------1h3-----------------|
G|-----0---2-----------0---2-----------0---2---0-------0---0h2-----|
D|-2-------------------------------2-------------------------------|  
A|-0---0---0---0---0---0---0---0---0---0---0---0---0---0---0---0---|
E|-----------------------------------------------------------------|


  2:28
  My pride
e|---------------------------------------------------------------------|
B|-3/5-3~p~1---3/5\3p1-----------------------------1h3-----------------|
G|---------------------2-------------------0---2-----------0---0h2-----|
D|-------------------------------------2-------------------------------|
A|-0---0---0---0---0---0---0---0---0---0---0---0---0---0---0---0---0---|
E|---------------------------------------------------------------------|


  2:34
  Will feel sorrow
e|---------------------------------------------------------------------|
B|-3/5-3---1---5\3p1-----------------------0---2---1h3-----------------|
G|---------------------2---------------2-------------------0---0h2-----|
D|---------------------------------------------------------------------|
A|-0---0---0---0---0---0---0---0---0---0---0---0---0---0---0---0---0---|
E|---------------------------------------------------------------------|


  2:39
  Nobody baby
e|---------------------------------------------------------------------|
B|-3/5-3p1-3/5\3p1---------------------------------1---3---------------|
G|-----------------2-----------------------0---2-----------0---2-------|
D|-------------------------------------2-------------------------------| 
A|-0---0---0---0---0---0---0---0---0---0---0---0---0---0---0---0---0---|
E|---------------------------------------------------------------------|


  2:45
  Nobody but you darlin'
e|-3---------------------------------------------------------------|
B|-----3/5-1---1h3~~~~p1-----------------------1h3-----------------|
G|-------------------------2-----------0---2---0-------0---0h2-----|
D|---------------------------------2-------------------------------|
A|-0---0---0---0---0---0---0---0---0---0---0---0---0---0---0---0---|
E|-----------------------------------------------------------------|


  2:50
  On my mind
e|-----------------------------------------------------------------|
B|-1h3-----1---1-------------------------------1h3-----------------|
G|-0-------0---0---2-------------------0---2-----------0---0h2p0---|
D|---------------------------------2-------------------------------| 
A|-0---0---0---0---0---0---0---0---0---0---0---0---0---0---0---0---|
E|-----------------------------------------------------------------|



Solo 2:


  2:56

e|---------------------3---3h5-------------5---3-------------------|
B|-----3/5-3---1---3/5-----------------------------5\3-------------|
G|-----------------------------------------------------------------|
D|-2---------------------------------------------------------------|
A|-0---0---0---0---0---0---0---0---0---0---0---0---0---0---0---0---|
E|-----------------------------------------------------------------|


  3:01

e|-----3-------5---3---3-----------------3-----3-----3-----3-----3-|
B|-3/5-----5---------5-----5-----------5-----5-----5-----5-----5---|
G|-----------------------------------------------------------------|
D|-----------------------------------------------------------------|
A|-0---0---0---0---0---0---0---0---0---0---0---0---0---0---0---0---|
E|-----------------------------------------------------------------|


  3:07

e|-----2-----3-----2---3-------8b-------------------8--------------|
B|---4-----5-----4--------------------10-8-----8/10-10-------------|
G|-----------------------------------------9-----------------------|
D|-----------------------------------------------------------------|
A|-0---0---0---0---0---0---0---0---0---0---0---0----0---0---0---0--|
E|-----------------------------------------------------------------|


  3:12

e|-----8---8---10/12\10-8-----8h10--------8---8---------------8----|
B|-10----10--------------10-----------------10----10--10-----------|
G|-----------------------------------------------------------------|
D|-----------------------------------------------------------------|
A|-0---0---0---0------0---0---0---0---0---0---0---0---0---0---0----|
E|-----------------------------------------------------------------|


  3:18

e|-----5\3------------------------|
B|---------5---3---1h3---3/5~\0---|
G|--------------------------------|
D|--------------------------------|
A|-0---0---0---0---0---0---0---0--|
E|--------------------------------|



Verse 4:


  3:20

e|-----------------------------------------------------------------|
B|-------------1h3---------5\3p1---------------1h3-----------------|
G|-----0---2---0-------0---------------0---2-----------0---0h2-----|
D|-2-------------------------------2-------------------------------|  
A|-0---0---0---0---0---0---0---0---0---0---0---0---0---0---0---0---|
E|-----------------------------------------------------------------|


  3:26

e|-----------------------------------------3-----------------------|
B|-------------1---3/5\3---1-------------------3/5\3p1-1h3p1-------|
G|-----0---2---------------------------0-----------------------2p0-|
D|-2-------------------------------2-------------------------------|
A|-0---0---0---0---0---0---0---0---0---0---0---0---0---0---0---0--0|
E|-----------------------------------------------------------------|


  3:31
  Baby
e|-----------------------------------------------------------------|
B|-------------1---3---------------------------1h3-----------------|
G|-----0---2-----------0---2-----------0---2-----------0---0h2-----|
D|-2-------------------------------2-------------------------------|
A|-0---0---0---0---0---0---0---0---0---0---0---0---0---0---0---0---|
E|-----------------------------------------------------------------|


  3:37
  I love you girl
e|-----------------------------------------------------------------|
B|-3/5-3---1---5\3p1---------------------------1---3---------------|
G|---------------------2---------------0---2---0---0---0---0h2p0---|
D|---------------------------------2-------------------------------|
A|-0---0---0---0---0---0---0---0---0---0---0---0---0---0---0---0---|
E|-----------------------------------------------------------------|
                                   *      play this twice       *


  3:45
  Baby
e|-3-------------------------------------------------------------------|
B|-----3/5\3---1-----------------------------------1h3-----------------|
G|-----------------------------------------0---2-----------0---0h2-----|
D|-------------------------------------2-------------------------------|  
A|-0---0---0---0---0---0---0---0---0---0---0---0---0---0---0---0---0---|
E|---------------------------------------------------------------------|


  3:50
  I love you girl
e|-----------------------------------------------------------------|
B|-3/5-3---1---5\3p1---------------------------1---3---------------|
G|---------------------2---------------0---2---0---0---0---0h2p0---|
D|---------------------------------2-------------------------------|
A|-0---0---0---0---0---0---0---0---0---0---0---0---0---0---0---0---|
E|-----------------------------------------------------------------|
                                   *      play this twice      *

  3:58
  Nobody baby
e|---------------------------------------------------------------------|
B|-3/5-3p1-3/5\3p1---------------------------------1---3---------------|
G|-----------------2-----------------------0---2-----------0---0h2-----|
D|-------------------------------------2-------------------------------| 
A|-0---0---0---0---0---0---0---0---0---0---0---0---0---0---0---0---0---|
E|---------------------------------------------------------------------|


  4:03
  Nobody but you darlin'
e|-3---------------------------------------------------------------|
B|-----3/5-1---1h3~~~~p1-----------------------1h3-----------------|
G|-------------0-----------2-----------0---2---0-------0---0h2-----|
D|---------------------------------2-------------------------------|
A|-0---0---0---0---0---0---0---0---0---0---0---0---0---0---0---0---|
E|-----------------------------------------------------------------|


  4:09
  On my mind
e|-----------------------------------------------------------------|
B|-1h3-----1---1-------------------------------1h3-----------------|
G|-0-------0---0---2-------------------0---2-----------0---0h2p0---|
D|---------------------------------2-------------------------------| 
A|-0---0---0---0---0---0---0---0---0---0---0---0---0---0---0---0---|
E|-----------------------------------------------------------------|
                                   *      play this thrice     *


Solo 3:


  4:20
  
e|-3-------------------3-------3h5-------------5---3---------------|
B|-----3/5-1---3---3/5-----5---------------------------5\3---------|
G|-----------------------------------------------------------------|
D|-----------------------------------------------------------------|
A|-0---0---0---0---0---0---0---0---0---0---0---0---0---0---0---0---|
E|-----------------------------------------------------------------|


  4:25

e|-----------------------------------------------------3-----------|
B|-1-------1---1/5\1-------------------1h3-1---1---3-------5\3-----|
G|---------------------2p0-----0h2-----------2---------------------|
D|-------------------------2---------------------------------------|
A|-0---0---0---0---0---0---0---0---0---0---0---0---0---0---0---0---|
E|-----------------------------------------------------------------|


  4:31

e|---------3-----------------------8b----0-----5-----3-----5-------|
B|-1---3-------5\3-1---1---3/5-5-------------------5-----5-----5---|
G|-------------------2---------------------------------------------|
D|-----------------------------------------------------------------|
A|-0---0---0---0---0---0---0---0---0---0---0---0---0---0---0---0---|
E|-----------------------------------------------------------------|


  4:36

e|-8b----5p0---3-----5---------8b--------------8---8h10-8----------|
B|-----------------5-----5-----------------8/10--10--------10\8----|
G|-----------------------------------------------------------------|
D|-----------------------------------------------------------------|
A|-0---0---0---0---0---0---0---0---0---0---0---0---0---0---0---0---|
E|-----------------------------------------------------------------|


  4:41

e|-----------------8-------8-----------15---12\8---8h10----8-------|
B|-8---8---8/10--------10------10------------------------------10p8|
G|-9---------------------------------------------------------------|
D|-----------------------------------------------------------------|
A|-0---0---0---0---0---0---0---0---0---0---0---0---0---0---0---0---|
E|-----------------------------------------------------------------|


  4:46

e|-----15---12\8---8h10----8-------------------3-------------------|
B|-----------------------------10--------------------------3/5-----|
G|-----------------------------------------------------------------|
D|-----------------------------------------------------------------|
A|-0---0---0---0---0---0---0---0---0---0---0---0---0---0---0---0---|
E|-----------------------------------------------------------------|


  4:51

e|--------------------------------|
B|-1h3-----1-------5\3-1---1h3p1--|
G|--------------------------------|
D|--------------------------------|
A|-0---0---0---0---0---0---0---0--|
E|--------------------------------|



Outro:


  4:54

e|-----------------------------------------------------------------|
B|-------------1---3---------------------------1h3-----------------|
G|-----0---2-----------0---0h2p0-------0---2-----------0---0h2p0---|
D|-2-------------------------------2-------------------------------|  
A|-0---0---0---0---0---0---0---0---0---0---0---0---0---0---0---0---|
E|-----------------------------------------------------------------|

 
  5:00

e|---------------------------------3-------------------------------|
B|-------------1---3-------------------3/5\3---1---1h3-----0-------|
G|-----0---2-----------0---0h2p0-------------------------------2p0-|
D|-2---------------------------------------------------------------|  
A|-0---0---0---0---0---0---0---0---0---0---0---0---0---0---0---0---|
E|-----------------------------------------------------------------|


  5:04

e|-----------------------------------------------------------------|
B|-------------1---3---------------------------1---3/5\3p1---------|
G|-----0---2-----------0---0h2p0-------0---2---------------2-------|
D|-2-------------------------------2-------------------------------|  
A|-0---0---0---0---0---0---0---0---0---0---0---0---0---0---0---0---|
E|-----------------------------------------------------------------|


  5:10

e|-----------------------------3/5\3p0----------------------------------|
B|-------------1---3-------------------1h3p1-5\3p1----------------------|
G|-----0---2-----------0---2-----------------------0h2p0-0h2------------|
D|-2-----------------------------------0-----0--------------------------|  END
A|-0---0---0---0---0---0---0---0-------------------3-----0---0-0-0-0-0--|
E|----------------------------------------------------------------------|
Tap to rate this tab
 
# A B C D E F G H I J K L M N O P Q R S T U V W X Y Z