Song name
# A B C D E F G H I J K L M N O P Q R S T U V W X Y Z

Black Keys - My Mind Is Ramblin tab

                                  ~~~~~~~~~~~~~~~~~~~~~~~~~~~~~~~~~~~~~~~
                                             My Mind Is Ramblin'
                                             by: The Black Keys
                                  Chulahoma: The Songs of Junior Kimbrough
                                  ~~~~~~~~~~~~~~~~~~~~~~~~~~~~~~~~~~~~~~~~
Tabbed by: Connor O.
Tuning: Standard
Effects: Echo/delay and fuzz



Like with all other Chulahoma songs, it's hard to know if this is exactly
how it's played as there is no live footage (that I could find) of it
being played. Also like other Chulahoma (Kimbrough in general, really)
songs, it's just following a certain pattern on a pentatonic scale. 

That being said, I'm confident in this tab's accuracy because it's
easy for me to play it this way and it sounds spot on with the 
recorded version.

Comment/message with corrections/ideas. Please rate my tab.



Key:
where # represents a number

#h# - hammer
#p# - pull
/ \ - slides, up and down respectively.
#b# - bend from normal note up to achieve bended note.
#r# - release bend from bended note to normal note.



Intro: 


  0:00

e|-------------------------------2-------5/7--5--0--0h2--0--|
B|---------------------------------5p2----------------------|
G|-------------2-4/6--6\4-2---------------------------------|
D|--2h4----2h4--------------4\2-----------------------------|
A|----------------------------------------------------------|
E|----------------------------------------------------------|


  0:15

e|----------------------------------------------------------|
B|----------------------------------------------------------|
G|--pb6r4~b6r4~b6r4~b6r4p2----------------------------------|
D|--------------------------2/4\2---------------------------|
A|--------------------------------2/4-----------------------|
E|----------------------------------------------------------|



Bridge:


  0:25
                                 
e|-----------------------------------|
B|-----------------------------------|
G|-------------------2h4-2---2---2---|
D|----------2------2-------4---------|  X2
A|--2---4------0---0---0---0---0-----|
E|-----------------------------------|
                                 

  0:32

e|-----------------------------------------------------------------|
B|-----------------------------------------------------------------|
G|------------4/6---------4-----0------------2h4---2-----2------0--|
D|--------2------------------------------2-----------4-------------|
A|--2--4------0---0---0---0---0---2--4-------0---0---0---0---0-----|
E|-----------------------------------------------------------------|


  0:41

e|-----------------------------------------------------------------|
B|------------------------5----------------5h7~p~5-----5-----------|
G|------------4/6----------------------------------6-------4-------|
D|--------2-----------------------------2----------------------4\2-|
A|--2--4------0---0---0---0---0---2--4-----0---0---0---0---0-------|
E|-----------------------------------------------------------------|


  0:49
 
e|-----------------------------------|
B|-----------------------------------|
G|-------------------2h4-2---2---2---|
D|----------2------2-------4---------|  X3
A|--2---4------0---0---0---0---0-----|
E|-----------------------------------|


  01:00

e|-----------------------------------|
B|-----------------------------------|
G|-------------------2h4-2---2-------|
D|----------2------2-------4---------|  
A|--2---4------0---0---0---0---0-----|
E|-----------------------------------|


  1:03

e|--------------------------------------------------------------------|
B|--------5-----5h7-----5---5h7-----5h7---5---------------------------|
G|--4h6-----------------------------------------4-------2-------------|
D|----------------------------------------------------------4p2----2--|
A|--0---0---0---0---0---0---0---0---0---0---0---0---0---0---0---0-----|
E|--------------------------------------------------------------------|


  1:10

e|-----------------------------------|
B|-----------------------------------|
G|-------------------2h4-2---2---2---|
D|----------2------2-------4---------|  X2
A|--2---4------0---0---0---0---0-----|
E|-----------------------------------|



Verse 1:


  1:17
  My mind is ramblin, place to place
e|-----------------------------------|
B|-----------------------------------|
G|-----------------------------------|
D|--------2--4-(+16 more 4's)--------|
A|--2--4-----------------------------|
E|-----------------------------------|


  1:26

e|-----------------------------------|
B|-----------------------------------|
G|-------------------2h4-2---2---2---|
D|----------2------2-------4---------|  X2
A|--2---4------0---0---0---0---0-----|
E|-----------------------------------|


  1:33
  Tell me, tell me, what must I do
e|-----------------------------------|
B|-----------------------------------|
G|-----------------------------------|
D|--------2--4-(+20 more 4's)--0-----|
A|--2--4-----------------------0-----|
E|-----------------------------------|


  1:43

e|-----------------------------------|
B|-----------------------------------|
G|-------------------2h4-2---2---2---|
D|----------2------2-------4---------|  
A|--2---4------0---0---0---0---0-----|
E|-----------------------------------|


  1:47

e|-----------------------------------|
B|-----------------------------------|
G|-------------------2h4-2---2-------|
D|----------2------2-------4---------|  
A|--2---4------0---0---0---0---0-----|
E|-----------------------------------|



Bridge:


  1:51
  Yeah yeah
e|--------------------------------------------------------------------|
B|--------5-----5h7-----5-----------5h7---5---------------------------|
G|--4h6-----------------------------------------4-------2-------------|
D|----------------------------------------------------------4p2----2--|
A|--0---0---0---0---0---0---0---0---0---0---0---0---0---0---0---0-----|
E|--------------------------------------------------------------------|


  1:58

e|-----------------------------------|
B|-----------------------------------|
G|-------------------2h4-2---2---2---|
D|----------2------2-------4---------|  X2
A|--2---4------0---0---0---0---0-----|
E|-----------------------------------|


  2:04
  Ahhh ahh
e|-----------------------------------------------------------------|
B|-----------------------------------------------------------------|
G|------------4/6---------4-----0------------2h4---2-----2------0--|
D|--------2------------------------------2-----------4-------------|
A|--2--4------0---0---0---0---0---2--4-------0---0---0---0---0-----|
E|-----------------------------------------------------------------|


  2:12
  Ahhh ahh
e|-----------------------------------------------------------------|
B|------------------------5----------------5h7~p~5-----5-----------|
G|------------4/6----------------------------------6---------------|
D|--------2-----------------------------2--------------------------|
A|--2--4------0---0---0---0---0---2--4-----0---0---0---0---0-------|
E|-----------------------------------------------------------------|
  

  2:19

e|-----------------------------------|
B|-----------------------------------|
G|-------------------2h4-2---2---2---|
D|----------2------2-------4---------|  X2
A|--2---4------0---0---0---0---0-----|
E|-----------------------------------|



Verse 2:


  2:26
  I been in love, been in love for a long time, with you baby
e|-----------------------------------|
B|-----------------------------------|
G|-----------------------------------|
D|--------2--4-(+20 more 4's)--------|
A|--2--4-----------------------------|
E|-----------------------------------|


  2:36

e|-----------------------------------|
B|-----------------------------------|
G|-------------------2h4-2---2---2---|
D|----------2------2-------4---------|  X2
A|--2---4------0---0---0---0---0-----|
E|-----------------------------------|


  2:43
  Gimme your hand, say you love me, say that you'll be mine
e|-----------------------------------|
B|-----------------------------------|
G|-----------------------------------|
D|--------2--4-(+24 more 4's)--------|
A|--2--4-----------------------------|
E|-----------------------------------|


  2:55

e|-----------------------------------|
B|-----------------------------------|
G|-------------------2h4-2---2---2---|
D|----------2------2-------4---------|  X3
A|--2---4------0---0---0---0---0-----|
E|-----------------------------------|


  3:06

e|-----------------------------------|
B|-----------------------------------|
G|-------------------2h4-2---2-------|
D|----------2------2-------4---------|  
A|--2---4------0---0---0---0---0-----|
E|-----------------------------------|



Bridge:


  3:09
  Yeah yeah
e|--------------------------------------------------------------------|
B|--------5-----5h7-----5-----------5h7---5---------------------------|
G|--4h6-----------------------------------------4-------2-------------|
D|----------------------------------------------------------4p2-------|
A|--0---0---0---0---0---0---0---0---0---0---0---0---0---0---0---0-----|
E|--------------------------------------------------------------------|


  3:16

e|-----------------------------------|
B|-----------------------------------|
G|-------------------2h4-2---2---2---|
D|----------2------2-------4---------|  
A|--2---4------0---0---0---0---0-----|
E|-----------------------------------|


  3:20

e|-----------------------------------|
B|-----------------------------------|
G|-------------------2h4-2---2-------|
D|----------2------2-------4---------|  
A|--2---4------0---0---0---0---0-----|
E|-----------------------------------|


  3:23
  Yeah yeah
e|--------------------------------------------------------------------------------|
B|--------5-----5h7-----5-----------5h7---5---------5h7---5-----------------------|
G|--4h6---------------------------------------------------------4-------2---------|
D|--------------------------------------------------------------------------4p2---|
A|--0---0---0---0---0---0---0---0---0---0---0---0---0---0---0---0---0---0---0---0-|
E|--------------------------------------------------------------------------------|


  3:32

e|-----------------------------------|
B|-----------------------------------|
G|-------------------2h4-2---2---2---|
D|----------2------2-------4---------|  
A|--2---4------0---0---0---0---0-----|
E|-----------------------------------|




e|-----------------------------------|
B|-----------------------------------|
G|-------------------2h4-2---2-------|
D|----------2------2-------4---------|  
A|--2---4------0---0---0---0---0-----|
E|-----------------------------------|



Solo 1:

  
  3:39

e|----------------------------------------5-----------------------|
B|--------5-----5h7-----------------5h7---------5h7---------------|
G|--4h6-----------------------------------------------------------|
D|----------------------------------------------------------------|
A|--0---0---0---0---0---0---0---0---0---0---0---0---0---0---0---0-|
E|----------------------------------------------------------------|

--------5-----7/9-----7--5--------------5-|
--5h7-------------------------5---5h7-----|
------------------------------------------|
------------------------------------------|
--0---0---0---0---0---0---0---0---0---0---|
------------------------------------------|


  3:49

e|-----5h7-----------------12----9/5---5h7-----5---------5------------|
B|---------7---------------------------------------5h7-------5h7------|
G|---------------------------------------------------------------6\4--|
D|--------------------------------------------------------------------|
A|-0---0---0---0---0---0---0---0---0---0---0---0---0---0---0---0---0--|
E|--------------------------------------------------------------------|

--------------------------------------|
---------------5----------------------|
---------4h6---------4-------2--------|
---------------------------------4\2--|
-0---0---0---0---0---0---0---0---0----|
--------------------------------------|




Bridge:


  4:02

e|-----------------------------------|
B|-----------------------------------|
G|-------------------2h4-2---2---2---| 
D|----------2------2-------4---------| X2 
A|--2---4------0---0---0---0---0-----|
E|-----------------------------------|


  4:17
  Ahhh ah
e|-----------------------------------------------------------------------|
B|-------------------------------------5---5h7-5---5---------------------|
G|-------------4h6-4---2h4-2-------4h6-----------6-----4h6-4---2h4-2---2-|
D|---------2-----------------4p2-------------------------------------4---|
A|-2---4-----------------------------------------------------------------|
E|-----------------------------------------------------------------------|


  4:38

e|-----------------------------------|
B|-----------------------------------|
G|-------------------2h4-2---2---2---| 
D|----------2------2-------4---------| X2 
A|--2---4------0---0---0---0---0-----|
E|-----------------------------------|



Solo 2:


  4:52

e|----------------------5-----------7/9---7-----9/12----12----------12/14-14----14----12--9\5--|
B|------5---5---5h7----------------------------------------------------------------------------|
G|--4h6---6------------------------------------------------------------------------------------|
D|---------------------------------------------------------------------------------------------|
A|--0---0---0---0---0---0---0---0---0---0---0---0---0---0---0---0---0---0---0---0---0---0---0--|
E|---------------------------------------------------------------------------------------------|


  5:01
 
e|------5h7-----5-----------------5-----------5---7/9---7---5--------------------------|
B|------------------7p5-----5h7---------5h7---------------------7p5--------------------|
G|----------------------------------------------------------------------4-----2--------|
D|--------------------------------------------------------------------------------2----|
A|--0---0---0---0---0---0---0---0---0---0---0---0---0---0---0---0---0---0---0---0---0--|
E|-------------------------------------------------------------------------------------|



Bridge:


  5:10

e|-----------------------------------|
B|-----------------------------------|
G|-------------------2h4-2---2---2---| 
D|----------2------2-------4---------| X4
A|--2---4------0---0---0---0---0-----|
E|-----------------------------------|


Verse 3:



  My mind is ramblin..............
e|-----------------------------------|
B|-----------------------------------|
G|-----------------------------------|
D|--------2--4-(+45 more 4's)--------|
A|--2--4-----------------------------|
E|-----------------------------------|


  5:44

e|-----------------------------------|
B|-----------------------------------|
G|-------------------2h4-2---2---2---| 
D|----------2------2-------4---------| X4
A|--2---4------0---0---0---0---0-----|
E|-----------------------------------|


  5:58
  yeah yeah
e|--------------------------------------------------------------------|
B|--------5-----5h7-----5-----------5h7---5---------------------------|
G|--4h6-----------------------------------------4-------2-------------|
D|----------------------------------------------------------4p2-------| X2
A|--0---0---0---0---0---0---0---0---0---0---0---0---0---0---0---0-----|
E|--------------------------------------------------------------------|


  6:11

e|-----------------------------------|
B|-----------------------------------|
G|-------------------2h4-2---2---2---| 
D|----------2------2-------4---------| X4
A|--2---4------0---0---0---0---0-----|
E|-----------------------------------|


  6:26
  Ahhh ahh
e|-----------------------------------------------------|
B|-----------------------------------------------------|
G|--------------4h6-4---2h4-2---2---4h6-4---2h4-2---2--|
D|----------2-----------------4-------------------4----|  END
A|--2---4----------------------------------------------|
E|-----------------------------------------------------|
Tap to rate this tab
# A B C D E F G H I J K L M N O P Q R S T U V W X Y Z