Song name
# A B C D E F G H I J K L M N O P Q R S T U V W X Y Z

Black Keys - Hold Me In Your Arms tab

                                  ~~~~~~~~~~~~~~~~~~~~~~~~~~~~~~~~~~~~~~~~
                                            Hold Me In Your Arms
                                               The Black Keys
                                               Thickfreakness
                                  ~~~~~~~~~~~~~~~~~~~~~~~~~~~~~~~~~~~~~~~~


Original Contribution by: Connor O.
Tuning: Open D (DADF#AD)
Effects: Fuzz



If you're anything like me. You really just want to pin down that slide tone. 
It's thick and dirty and awesome. I can get my setup to sound pretty close
to the recorded version, and I don't even have that much equipment. It 
shouldn't be too hard to pin it down, but if you're struggling I may
be able to help you.

Dan plays the slide with a lot of vibrato, and then returns. By return, I 
mean he'll slide D|--3/5--|, vibrato it, and then bring it back. So like
D|--3/5vvvv\3--|. Make sure to mute the string before taking the slide off.

Comment with ideas/corrections. Please rate my tab.



Key:
where # represents a fret number

#h# - hammer
#p# - pull
/ \ - slides, up and down respectively.
#b# - bend from normal note up to achieve bended note.
#r# - release bend from bended note to normal note.
=== - under boxes, represents the use of a guitar slide



Intro:


  0:00

d|--3/5----0-3/5\3-0-3/5------8\0-0-3/5-------------------------------|
A|--------------------------------------3/5----5\3--------------------|
F|-------------------------------------------------1/3\1p0------------|
D|---------------------------------------------------------1/3--------|
A|---------------------------------------------------------------3/5--|
D|--------------------------------------------------------------------|
    ================================================================


Bridge:

  
  0:09
  (1st and 3rd slides have returns. 4th slide is delayed)
d|---0-----------------|
A|---------------------|
F|---------------------|
D|-----5p4-0----0------|  X4
A|----------------3/5--|
D|-0---------3b--------|
                  ===

  0:24
  (drums kick in)
d|---0-----------------|
A|---------------------|
F|---------------------|
D|-----5p4-0----0------|  X3
A|----------------3/5--|
D|-0---------3b--------|
                  ===

  0:32

d|---0-----------------|
A|---------------------|
F|--------------0------|
D|-----5p4-0----0------|  
A|---------------------|
D|-0---------3b--------|



Verse 1:


  0:33
  Well I need you     need you by my side
d|-----------------------------------------|
A|-----------------------------------------|
F|--------1------1-1------1----------------|
D|--------0-----------------------5-5p3-0--|
A|---0-2-----2-------0-2-----2-------------|
D|-3-----------3---------------3-----------|


  0:39
 
d|---0-----------------|
A|---------------------|
F|---------------------|
D|-----5p4-0----0------| 
A|----------------3/5--|
D|-0---------3b--------|
                  ===

  0:41

d|---0-----------------|
A|---------------------|
F|--------------0------|
D|-----5p4-0----0------|  
A|---------------------|
D|-0---------3b--------|


  0:43
  Lonely evenin'           eyes are open wide
d|-----------------------------------------|
A|-----------------------------------------|
F|--------1------1-1------1----------------|
D|--------0-----------------------5b-5p3-0-|
A|---0-2-----2-------0-2-----2-------------|
D|-3-----------3---------------3-----------|


  0:48

d|---0-----------------|
A|---------------------|
F|---------------------|
D|-----5p4-0----0------| X3
A|----------------3/5--|
D|-0---------3b--------|
                  ===

  0:55

d|---0-----------------|
A|---------------------|
F|---------------------|
D|-----5p4-0----0------|  
A|---------------------|
D|-0---------3b--------|


  0:57
  Nothin you say, will make me change my mind
d|---------------------|
A|---------------------|
F|-2/3---0---3/5---2/3-|
D|-2/3---0---3/5---2/3-|
A|-2/3---0---3/5---2/3-|
D|---------------------|


  1:01

d|---0-----------------|
A|---------------------|
F|---------------------|
D|-----5p4-0----0------| X3
A|----------------3/5--|
D|-0---------3b--------|
                  ===

  1:08

d|---0-----------------|
A|---------------------|
F|---------------------|
D|-----5p4-0----0------|  
A|---------------------|
D|-0---------3b--------|



Verse 2:


  1:10
  Well I see you         and you see me too
d|-----------------------------------------|
A|-----------------------------------------|
F|--------1------1-1------1----------------|
D|--------0-----------------------5-5p3-0--|
A|---0-2-----2-------0-2-----2-------------|
D|-3-----------3---------------3-----------|


  1:14
 
d|---0-----------------|
A|---------------------|
F|---------------------|
D|-----5p4-0----0------| 
A|----------------3/5--|
D|-0---------3b--------|
                  ===

  1:17

d|---0-----------------|
A|---------------------|
F|--------------0------|
D|-----5p4-0----0------|  
A|---------------------|
D|-0---------3b--------|


  1:18
  Moon is risin'      night will be here soon
d|-----------------3------------------------|
A|-----------------2------------------------|
F|--------1------1-1------1-----------------|
D|--------0-----------------------5b7r5p3-0-|
A|---0-2-----2-------0-2-----2--------------|
D|-3-----------3---------------3------------|


  1:23
 
d|---0-----------------|
A|---------------------|
F|---------------------|
D|-----5p4-0----0------| X3
A|----------------3/5--|
D|-0---------3b--------|
                  ===

  1:29

d|---0-----------------|
A|---------------------|
F|--------------0------|
D|-----5p4-0----0------|  
A|---------------------|
D|-0---------3b--------|


  1:31
  Follow me and lay down in my room
d|---------------------|
A|---------------------|
F|-2/3---0---3/5---2/3-|
D|-2/3---0---3/5---2/3-|
A|-2/3---0---3/5---2/3-|
D|---------------------|


  1:36

d|---0-----------------|
A|---------------------|
F|---------------------|
D|-----5p4-0----0------| X3
A|----------------3/5--|
D|-0---------3b--------|
                  ===

  1:42

d|---0-----------------|
A|---------------------|
F|---------------------|
D|-----5p4-0----0------|  
A|---------------------|
D|-0---------3b--------|



Bridge:

  
  1:44

d|---------------------|
A|---------------------|
F|-/5---/8---/10-------|
D|-/5---/8---/10-------|
A|-/5---/8---/10-------|
D|---------------------|


  1:48

d|---0-----------------|
A|---------------------|
F|---------------------|
D|-----5p4-0----0------| X3
A|----------------3/5--|
D|-0---------3b--------|
                  ===

  1:55

d|---0-----------------|
A|---------------------|
F|---------------------|
D|-----5p4-0----0------|  
A|---------------------|
D|-0---------3b--------|


  1:57

d|---------------------|
A|---------------------|
F|-/5---/8---/10-------|
D|-/5---/8---/10-------|
A|-/5---/8---/10-------|
D|---------------------|


  2:01

d|---0-----------------|
A|---------------------|
F|---------------------|
D|-----5p4-0----0------| X3
A|----------------3/5--|
D|-0---------3b--------|
                  ===

  2:07

d|---0-----------------|
A|---------------------|
F|---------------------|
D|-----5p4-0----0------|  
A|---------------------|
D|-0---------3b--------|



Verse 3:


  2:09

Exactly like the previous verses


Hold me, hold me in your arms
Well now heal me, heal me with your charm
Your touch keeps me hanging on



Bridge:


  2:42

Exactly like the previous bridge minus one riff at the end



Outro:


  3:07
  (Increasing intensity, working in vibrato, quick 12\0 return)
d|--------------------------------------------------|
A|--------------------------------------------------|
F|-/12-12-12-12-12-12-12-12-12-12-12-12-12\0--/3-0--|
D|-/12-12-12-12-12-12-12-12-12-12-12-12-12\0--/3-0--|
A|-/12-12-12-12-12-12-12-12-12-12-12-12-12\0--/3-0--|
D|--------------------------------------------------|
Tap to rate this tab
# A B C D E F G H I J K L M N O P Q R S T U V W X Y Z