Song name
# A B C D E F G H I J K L M N O P Q R S T U V W X Y Z

Black Keys - Juniors Instrumental tab

                                  ~~~~~~~~~~~~~~~~~~~~~~~~~~~~~~~~~~~~~~~~
                                            Junior's Instrumental
                                               The Black Keys
                                                 Rare Ones
                                  ~~~~~~~~~~~~~~~~~~~~~~~~~~~~~~~~~~~~~~~~


Original Contribution by: Connor O.
Tuning: Standard



Comment with ideas/corrections.

Please rate my tab


Key:
where # represents a fret number

#h# - hammer
#p# - pull
/ \ - slides, up and down respectively.
#b# - bend from normal note up to achieve bended note.
#r# - release bend from bended note to normal note.
 x  - mute



Intro:


  0:00

e|---------|
B|-----3---|
G|-2-0---2-|
D|---------|
A|---------|
E|---------|


  0:02

e|---------------------------------------------------------------------|
B|---------3h5---3p0------------------------------------3--------------|
G|-------------------------2h4---2p0-------2p0-----2/4-----4\2p0-------|  
D|---------------------------------------------------------------2-----|
A|---------------------------------------------------------------------|
E|-0-------0-------0-------0-------0-------0-------0-------0-------0---|


  0:07

e|---------------------------------------------------------------------|
B|---------3h5---3p0------------------------------------3--------------|
G|-------------------------2h4---2p0-------2p0-----2/4-----4\2p0-------|  
D|---------------------------------------------------------------2-----|
A|-----------------------------------------------------------------0---|
E|---------0-------0-------0-------0-------0-------0-------0-----------|


  0:11

e|---------------------------------------------------------------------|
B|----------------------------------------------3----------------------|
G|-0h2---0h2-------2-----0h2-------2p0-----2/4-----4\2p0---------------|
D|-------------------------------------------------------2-------------|
A|-0-------0-------0-------0-------0-------0-------0-------0-----------|
E|---------------------------------------------------------------------|


  0:17

e|---------------------------------------------------------------------|
B|----------------------------3----------------------------------------|
G|-2-----0h2-------2---0---------------2---------0h2-------------------|
D|---------------------------------------------------------------------|
A|-0-------0-------0-------0-------0------(0)-----(0)------------------|
E|---------------------------------------------------------------------|


  0:20

e|---------------------------------------------------------------------|
B|---------3h5---3p0------------------------------------3--------------|
G|-------------------------2h4---2p0-------2p0-----2/4-----------------|  
D|---------------------------------------------------------------------|
A|---------------------------------------------------------------------|
E|-0-------0-------0-------0-------0-------0-------0------(0)----------|


  0:25

e|---------------------------------------------------------------------|
B|---------3h5---3p0------------------------------------3--------------|
G|-------------------------2h4---2p0-------2p0-----2/4-----4\2p0-------|  
D|---------------------------------------------------------------2-----|
A|-----------------------------------------------------------------0---|
E|-0-------0-------0-------0-------0-------0-------0-------0-----------|


  0:30

e|---------------------------------------------------------------------|
B|---------------------------------------------3-----------------------|
G|-0h2---0h2-------2-----0h2-------2-----0h2-------2/4-----------------|
D|---------------------------------------------------------------------|
A|-0-------0-------0-------0-------0-------0-------0------0------------|
E|---------------------------------------------------------------------|


  0:34

e|---------------------------------------------------------------------|
B|---------------------------------------------3-----------------------|
G|-2-----0h2-------2-----0h2-------2-----0h2-------2/4-----------------|
D|---------------------------------------------------------------------|
A|-0-------0-------0-------0-------0-------0-------0-------------------|
E|---------------------------------------------------------------------|


  0:39

e|---------------------------------------------------------------------|
B|---------3h5---3p0------------------------------------3--------------|
G|-------------------------2h4---2p0-------2p0-----2/4-----4\2p0-------|  
D|---------------------------------------------------------------2-----|
A|---------------------------------------------------------------------|
E|-0-------0-------0-------0-------0-------0-------0-------0-------0---|


  0:43

e|---------------------------------------------------------------------|
B|---------3h5---3p0---------------------------------------------------|
G|-------------------------2h4---2p0-------2p0-----2/4-----4\2---------|  
D|---------------------------------------------------------------------|
A|-----------------------------------------------------------------0---|
E|---------0-------0-------0-------0-------0-------0-------0-----------|


  0:48

e|-----------------------------0---------------------------------------|
B|---------------------------------3/5---------------------------------|
G|-2-----0h2-------2-----0h2---------------4\2-----0-------------------|
D|---------------------------------------------------------------------|
A|-0-------0-------0-------0-------0-------0-------0-------0-----------|
E|---------------------------------------------------------------------|


  0:52

e|---------------------------------------------------------------------|
B|-------------------------3-------------------------------------------|
G|-2-----0h2------------------2/4------0------2p0----------------------|
D|---------------------------------------------------------------------|
A|-0-------0------(0)-----(0)-----(0)-----(0)--------------------------|
E|---------------------------------------------------------------------|

 
  0:57

e|---------------------------------------------------------------------|
B|---------3h5---3p0---------------------------------------------------|
G|-------------------------2h4---2p0-------2p0-----2---/---4-----------|  
D|---------------------------------------------------------------------|
A|---------------------------------------------------------------------|
E|-0-------0-------0-------0-------0-------0-------0------(0)----------|


  1:01

e|---------------------------------------------------------------------|
B|---------3h5---3p0---------------------------------------------------|
G|-------------------------2h4---2p0-------2p0-----2-------------------|  
D|---------------------------------------------------------------------|
A|----------------------------------------------------------------0----|
E|-0-------0-------0-------0-------0-------0-------0-------0-----------|


  1:06

e|---------------------------------------------------------------------|
B|-------------------------3-------------------------------------------|
G|-4p2p0-----------0---------------4p2p0-------------------------------|
D|---------2-------------------------------2---------------------------|
A|-0-------0-------0-------0-------0-------0------(0)------0-----------|
E|---------------------------------------------------------------------|


  1:09

e|---------------------------------------------------------------------|
B|-------------------------3-------------------------------------------|
G|-4p2p0-----------0---------------4p2p0------0h2----------------------|
D|---------2-------------------------------2---------------------------|
A|-0-------0-------0-------0-------0-------0------(0)------------------|
E|---------------------------------------------------------------------|


  1:13

e|---------------------------------------------------------------------|
B|---------3h5---3p0------------------------------------3--------------|
G|-------------------------2h4---2p0-------2p0-----2/4-----4\2p0-------|  
D|---------------------------------------------------------------2-----|
A|---------------------------------------------------------------------|
E|-0-------0-------0-------0-------0-------0-------0-------0-------0---|


  1:18

e|---------------------------------------------------------------------|
B|---------3h5---3p0-------------------------------3---------------3h5-|
G|-------------------------2h4---2p0-------2/4-------------4-----------|  
D|---------------------------------------------------------------------|
A|---------------------------------------------------------------------|
E|---------0-------0-------0-------0-------0-------0-------0-------0---|


  1:23

e|---------------------------------3-----------------------------------|
B|---------------------------------------------------------------------|
G|---------------------------------------------------------------------|  
D|---------------------------------------------------------------------|
A|---------------------------------------------------------------------|
E|-0-------0-------0-------0-------0-------0-------0-------0-----------|


  1:27

e|-----------------3h5-----3-----------3-------------------------------|
B|---------5-----------------------5-------5-------5-------------------|
G|---------------------------------------------------------------------|  
D|---------------------------------------------------------------------|
A|---------------------------------------------------------------------|
E|-0-------0-------0-------0-------0-------0-------0-------0-------0---|


  1:33

e|---------------------------------------------------------------------|
B|-----------------3---------------------------------------------------|
G|-------------------------2/4-----0-h-2-p-0---------------------------|  
D|--------------------------------------------------------------2------|
A|---------------------------------------------------------------------|
E|-0-------0-------0-------0-------0-------0------(0)-------0-------0--|


  1:37

e|---------------------------------------------------------------------|
B|---------------------------------3-----------------------3-----------|
G|---------0---h---2-----------------------4p2p0-----------------------|  
D|-0h2---------------------------------------------2-------------------|
A|-------------------------0-------0-------0-------0-------0-----------|
E|-0-------0------(0)--------------------------------------------------|


  1:41

e|---------------------------------------------------------0-----0-------------------------|
B|---------------------------------3-------3-------3-------3/5---5\3---0-----------0-------|
G|-4p2p0-----------0---------------------------------------------------4---2-----------2---|
D|---------2-------------------------------------------------------------------------------|
A|-0-------0-------0-------0-------0-------0-------0-------0-------0-------0------(0)------|
E|-----------------------------------------------------------------------------------------|


  1:47

e|---------------------------------------------------------------------|
B|---------3h5---3p0------------------------------------3--------------|
G|-------------------------2h4---2p0-------2p0-----2/4-----4\2p0-------|  
D|---------------------------------------------------------------2-----|
A|---------------------------------------------------------------------|
E|-0-------0-------0-------0-------0-------0-------0-------0-------0---|


  1:52

e|---------------------------------------------------------------------|
B|---------3h5---3p0------------------------------------3--------------|
G|-------------------------2h4---2p0-------2p0-----2/4---------0---4---|  
D|-----------------------------------------------------------------4---|
A|---------------------------------------------------------------------|
E|---------0-------0-------0-------0-------0-------0-------0-----------|


  1:56

e|---------5-------------------5---------------------------------------------------------------------|
B|---------------------------------4-------------------------------3---------------------------------|
G|-------------------------------------4-----------0h2--------------------------------2/4-----0~h2p0-|
D|-4-------4-------4-------4-------4-------4---------2-----------------------------------------------|
A|---------------------------------------------------------0-------0-------0-------0-------0---------|
E|---------------------------------------------------------------------------------------------------|


  2:04

e|---------------------------------------------------------------------------------------------------|
B|---------------------------------------------------------------------------------------------------|
G|-----------------2p0-------------------------------------------------------------------------------|
D|-------------------------2-----------------------2p0-----------------------------------------------|
A|---------------------------------------------------------2-----------------------2p0---------------|
E|-0-------0-------0-------0-------0-------0-------0-------0-------0-------0-------0-------3-------0-|
  END
Tap to rate this tab
# A B C D E F G H I J K L M N O P Q R S T U V W X Y Z