Song name
# A B C D E F G H I J K L M N O P Q R S T U V W X Y Z

Black Keys - Ten Cent Pistol tab

-------------------------------------------------------------------------------
                             Ten Cent Pistol - The Black Keys
-------------------------------------------------------------------------------
Tabbed by: Sovaso


Tuning: Standard

"Hold On" Part

With delay         This note Echos  
e|----3------------3--------------------------|
B|----3------------3--------------------------|
G|-----------------3--------------------------|
D|-----------------5--------------------------|
A|------------5-------------------------------|
E|------------3-------------------------------|

"Hold On"

Intro
e|------3-------3--3----------3----3---------3--------3----3---3-----3--3--3-|
B|------3-------3--3----------3----3---------3--------3----3---3-----3--3--3-|
G|------3---------------------3----3---------4--------3--------------3--3--4-|
D|------5------------------------------x--------------5--------------------5-| 
A|------5---------------5--------------x--------------5----------------------|
E|---3------------------3--------------x-----------3-------------3-----------|

 Chorus/intro riff
e|---------------------------------------------------------------------------|
B|---------------------------------------------------------------------------|
G|--10/12--10/12---10/12----10----7-\5---3/5/7---3/5--3/5/7-----7----10------|
D|---------------------------------------------------------------------------|
A|--8/10---8/10----8/10-----8-----5-\3---1/3/5---1/3--1/3/5-----5----8-------|
E|---------------------------------------------------------------------------|

e|------3-------3--3----------3----3---------3--------3----3---3-----3--3--3-|
B|------3-------3--3----------3----3---------3--------3----3---3-----3--3--3-|
G|------3---------------------3----3---------4--------3--------------3--3--4-|
D|------5------------------------------x--------------5--------------------5-| 
A|------5---------------5--------------x--------------5----------------------|
E|---3------------------3--------------x-----------3-------------3-----------|

e|------3-------3--3----------3----3---------3--------3----3---3-----3--3--3-|
B|------3-------3--3----------3----3---------3--------3----3---3-----3--3--3-|
G|------3---------------------3----3---------4--------3--------------3--3--4-|
D|------5------------------------------x--------------5--------------------5-| 
A|------5---------------5--------------x--------------5----------------------|
E|---3------------------3--------------x-----------3-------------3-----------|

e|---------1--1--1--------1--1-----------------------------------------------|
B|---------1--1--1--------1--1-----------------------------------------------|
G|---------1-----------------------------------------------------------------|
D|---------3-----------------------------------------------------------------|
A|-4-3-----3------------3---------3---4--------------------------------------|
E|---------1------------1----------------------------------------------------|

1st Solo

e|---------------------------------------------------------------------------|
B|---------------11----------------------------------------------------------|
G|---12-12-12-12-----12-----------------10-----10-12-10-----------12-12-12-12|
D|--------------------------12-12-12-12----12-------------12-----------------|
A|---------------------------------------------------------------------------|
E|---------------------------------------------------------------------------|

e|-------------------10\-----------------------------------------------------|
B|-11-----11--------------11-13----------------------------------------------|
G|----12-----12-------------------12-10--------------------------------------|
D|----------------------------------------12---------------------------------|
A|---------------------------------------------------------------------------|
E|---------------------------------------------------------------------------|

2nd Solo
e|----------6-------------------6h8---6--------------------------------------|
B|-8-8-8-8----8---------8-8-8-8----------------------------------------------|
G|---------------------------------------------------3-----3-----------------|
D|-------------------------------------------5-5-5-5-----5---5---------------|
A|---------------------------------------------------------------------------|
E|---------------------------------------------------------------------------|


e|------------------------6-8-6-------------6--8/10---6----------------------|
B|----------------------8----------------8--------------8-8------------------|
G|--3h5----3-----------------------------------------------------------------|
D|-----------5-5~~-----------------------------------------------------------|
A|---------------------------------------------------------------------------|
E|---------------------------------------------------------------------------|


e|-----6-8-6--------/10----6-8-6---------------------------------------------|
B|---8---------------------------8-------------------------------------------|
G|-----------------------------------------------------------3---------------|
D|---------------------------------------------3h5---3---3-5-----------------|
A|----------------------------------5--4---3-----------5---------------------|
E|---------------------------------------------------------------------------|


e|----------------------------------------------6----------------------------|
B|-----------------------8-----6-8-8-6h8------8---8--------------------------|
G|---3-5-/7-5-3-5/7--------5/7-----------------------------------------3-----|
D|---------------------------------------------------------------5-3-5-------|
A|---------------------------------------------------5--4---3----------------|
E|---------------------------------------------------------------------------|


e|---------------------------------------------------------------------------|
B|-------------------------------------------6---6--6---8--/10--6--6h8--6----|
G|-----3---3h5---3---3--5--/7----------7--7--------------------------------7-|
D|---5-------------5---------------------------------------------------------|
A|---------------------------------------------------------------------------|
E|---------------------------------------------------------------------------|


e|----------------------6---------/10--6-8-6---------------------------------|
B|6h8-----------8-8-8-8----8~~----------------8--------8-8-8-8-8-8-----------|
G|---------------------------------------------------------------------------|
D|---------------------------------------------------------------------------|
A|---------------------------------------------------------------------------|
E|---------------------------------------------------------------------------|


e|6-----------------------|
B|--8~~----6--------------|
G|-----------\5----3-5-3--|
D|------------------------|
A|------------------------|
E|------------------------|

Outro Solo

e|---------------------------------------------------------------------------|
B|-------------11---------------------11h13-11----11-------11-10-11-10-11h13-|
G|-12-12-12-12----12----12-12-12-12------------12-----12---------------------|
D|---------------------------------------------------------------------------|
A|---------------------------------------------------------------------------|
E|---------------------------------------------------------------------------|

e|-----------------------------------5~~~~~~~~~~~~---------------------------|
B|---11-------------------------3h5------------------------------------------|
G|-------12-10-----10-12-10\5------------------------------------------------|
D|--------------11-----------------------------------------------------------|
A|---------------------------------------------------------------------------|
E|---------------------------------------------------------------------------|

e|-------------------------------------3-------------------------------------|
B|-----------------------------------3---6p3-----------5---------------------|
G|h5-3-----------------3h5p3-----3h5---------5p3---3h5---5p3-----------------|
D|-----5-5~~---5-3-5----------5------------------5---------------------------|
A|---------------------------------------------------------------------------|
E|---------------------------------------------------------------------------|


e|---------------------------------------------------------------------------|
B|------------------------------3--------------------------------------------|
G|-----------3h5-----5p3------3h5-----3h5---3h5------3------3h5--------3-----|
D|5-----------------------5----------------------5---------5---------5-------|
A|---------------------------------------------------------------------------|
E|---------------------------------------------------------------------------|

End Arpeggio

e|--------------------------------3------------------------------------------|
B|------------------------3--------------------------------------------------|
G|------------------3--------------------------------------------------------|
D|--------------5------------------------------------------------------------|
A|--------5------------------------------------------------------------------|
E|---3-----------------------------------------------------------------------|


Song Order
Hold on Part        x1
Intro               x2
chorus riff         x2
Verse               x6
intro/chorus riff   x2         
1st solo            x1              
Verse               x6
intro/chorus riff   x2
2nd solo            x1
Verse               x4
intro/chorus riff   x2
Outro solo          x1
End Arpeggio        x1
************************************

| /   slide up
| \   slide down
| h   hammer-on
| p   pull-off
| ~   vibrato
| +   harmonic
| x   Mute note
| b   Bend
| pb  Pre-bend
| br  Bend release
| pbr Pre-bend release
| brb Bend release bend

************************************
Tap to rate this tab
# A B C D E F G H I J K L M N O P Q R S T U V W X Y Z