Song name
# A B C D E F G H I J K L M N O P Q R S T U V W X Y Z

Black Keys - Yearnin tab

                                  ~~~~~~~~~~~~~~~~~~~~~~~~~~~~~~~~~~~~~~~~
                                                  Yearnin'
                                               The Black Keys
                                              The Big Come Up
                                  ~~~~~~~~~~~~~~~~~~~~~~~~~~~~~~~~~~~~~~~~
Tabbed by: Connor O.
Tuning: Open G (DGDGBd)



Extremely fast song. Didn't really bother timing most of the boxes as a result. 
Not much else to say, really a fun song.

Comment or message any ideas or corrections. Please rate my tab.



Key:
where # represents a fret number

#h# - hammer
#p# - pull
/ \ - slides, up and down respectively.



Intro:


  0:00
       
d|----------------------------------------------------------------| 
B|-6/8------6-5-6---6---6---------5-------------------------------|
G|-7/9------7-5-5h7-5h7-5-------5---------------------------------|
D|----------------------------5-----------------------------------|
G|--------------------------5-------------------------------------|
D|----------------------------------------------------------------| 


  0:06
                                                          Well I
d|----------------------------------------------------------------| 
B|-5-5-5-5-5-5-5-5-2-2-2-2-3-3-3-3-5-5-5-5-6-6-6-6-6-5------------|
G|-5-5-5-5-5-5-5-5-2-2-2-2-3-3-3-3-5-5-5-5-5-5-5-5-5-5------------|
D|-5-5-5-5-5-5-5-5-2-2-2-2-3-3-3-3-5-5-5-5-7-7-7-7-7-5------------|
G|-5-5-5-5-5-5-5-5-2-2-2-2-3-3-3-3-5-5-5-5-5-5-5-5-5-5------------|
D|----------------------------------------------------------------| 



Verse 1:

  0:14
   want you                        here with me        Darlin' I 
d|----------------------------------------------------------------| 
B|---------6-p-5-------6-p-5---------------6-p-5---------6--------|
G|---------5-----------5-------------------5-------------5--------|
D|----------------------------------------------------------------|
G|-5--(5)--5---5---5---5---5---5---5---5---5---5---5---5---0------|
D|----------------------------------------------------------------| 



   need you                        can't you see       I   got the 
d|----------------------------------------------------------------| 
B|----------------------------------------------------------------|
G|---------2-----------2-------------------3----------------------|
D|---------2-----------2-------------------3---------------3------|
G|-2--(2)--2---0---2---2---0---0---3---3---3---0---3---3---3---5--|
D|----------------------------------------------------------------| 



   yearnin'                        we've all day       I want your 
d|----------------------------------------------------------------| 
B|-----------------6-p-5------------------------------------------|
G|---------5---------------5---------------5---------------5------|
D|---------5-------------------------------5---------------5------|
G|-5---5---5---5---5---5---5---5---5---5---5---5---5---5---5---0--|
D|----------------------------------------------------------------| 



   love                            your special way            I
d|----------------------------------------------------------------| 
B|----------------------------------------------------------------|
G|---------2-----------2-------------------3---------------3------|
D|---------2-----------2-------------------3---------------3------|
G|-2---2---2---0---2---2---0---0---3---3---3---0---3---3---3---0--|
D|----------------------------------------------------------------| 



   love        I love your smile                           oh
d|----------------------------------------------------------------| 
B|---------6-p-5-----------6---------------11p10-----------11-----|
G|---------5---------------5---------------10--------------10-----|
D|----------------------------------------------------------------|
G|-5---5---5---5---5---5---5---0---6/8-8---8---8---8---8---8---0--|
D|----------------------------------------------------------------| 



   darlin' don't you drive me wild
d|----------------------------------------------------------------| 
B|--------------------6/8-8-8-6-6-5-------------------------------|
G|-7-7-7-7-7-7-7-7-0--7/9-9-9-7-7-5-------------------------------|
D|-7-7-7-7-7-7-7-7-0----------------------------------------------|
G|-7-7-7-7-7-7-7-7-0----------------0-----------------------------|
D|----------------------------------------------------------------|



Verse 2:


  0:35
  I heard you                      call my name and I was callin'
d|----------------------------------------------------------------| 
B|---------6-p-5-------6-p-5---------------6-p-5---------6--------|
G|---------5-----------5-------------------5-------------5--------|
D|----------------------------------------------------------------|
G|-5--(5)--5---5---5---5---5---5---5---5---5---5---5---5---0------|
D|----------------------------------------------------------------| 



                                   just the same           and I 
d|----------------------------------------------------------------| 
B|----------------------------------------------------------------|
G|---------2-----------2-------------------3----------------------|
D|---------2-----------2-------------------3---------------3------|
G|-2--(2)--2---0---2---2---0---2---3---3---3---0---3---3---3---5--|
D|----------------------------------------------------------------| 



   want you                        by my side          and I'm yearnin'
d|----------------------------------------------------------------| 
B|---------6-p-5-------6-p-5---------------6-p-5---------6--------|
G|---------5-----------5-------------------5-------------5--------|
D|----------------------------------------------------------------|
G|-5---5---5---5---5---5---5---5---5---5---5---5---5---5---0------|
D|----------------------------------------------------------------| 



                                   I can't deny you got a 
d|----------------------------------------------------------------| 
B|----------------------------------------------------------------|
G|---------2-----------2-------------------3---------------3------|
D|---------2-----------2-------------------3---------------3------|
G|-2---2---2---0---2---2---0---2---3---3---3---0---3---3---3---0--|
D|----------------------------------------------------------------| 



   hold        a hold on me                                oh 
d|----------------------------------------------------------------| 
B|---------6-p-5-----------6---------------11p10-----------11-----|
G|---------5---------------5---------------10--------------10-----|
D|----------------------------------------------------------------|
G|-5---5---5---5---5---5---5---0---6/8-8---8---8---8---8---8---0--|
D|----------------------------------------------------------------| 



  darlin' don't you leave me be
d|----------------------------------------------------------------| 
B|--------------------6/8-8-8-6-6-5-------------------------------|
G|-7-7-7-7-7-7-7-7-0--7/9-9-9-7-7-5-------------------------------|
D|-7-7-7-7-7-7-7-7-0----------------------------------------------|
G|-7-7-7-7-7-7-7-7-0----------------------------------------------|
D|----------------------------------------------------------------|



Interlude:


  0:55

d|----------------------------------------------------------------| 
B|-6/8---8--6p5-6-5-6---------------------------------------------|
G|-7/9---9--7p5-7-5-7---------------------------------------------|  X2
D|----------------------------------------------------------------|
G|----------------------------------------------------------------|
D|----------------------------------------------------------------| 



Verse 3 (Same words as Verse 1):


  1:03

d|----------------------------------------------------------------| 
B|---------6-p-5-------6-p-5---------------6-p-5---------6--------|
G|---------5-----------5-------------------5-------------5--------|
D|----------------------------------------------------------------|
G|-5--(5)--5---5---5---5---5---5---5---5---5---5---5---5---0------|
D|----------------------------------------------------------------| 



    
d|----------------------------------------------------------------| 
B|----------------------------------------------------------------|
G|---------2-----------2-------------------3----------------------|
D|---------2-----------2-------------------3---------------3------|
G|-2--(2)--2---0---2---2---0---0---3---3---3---0---3---3---3---5--|
D|----------------------------------------------------------------| 



    
d|----------------------------------------------------------------| 
B|---------6-p-5-------6-p-5---------------6-p-5---------6--------|
G|---------5-----------5-------------------5-------------5--------|
D|----------------------------------------------------------------|
G|-5---5---5---5---5---5---5---5---5---5---5---5---5---5---0------|
D|----------------------------------------------------------------|  



   
d|----------------------------------------------------------------| 
B|----------------------------------------------------------------|
G|---------2-----------2-------------------3---------------3------|
D|---------2-----------2-------------------3---------------3------|
G|-2---2---2---0---2---2---0---0---3---3---3---0---3---3---3---0--|
D|----------------------------------------------------------------| 



   
d|----------------------------------------------------------------| 
B|---------6-p-5-----------6---------------11p10---10------11-----|
G|---------5---------------5---------------10------10------10-----|
D|----------------------------------------------------------------|
G|-5---5---5---5---5---5---5---0---6/8-8---8---8---8---8---8---0--|
D|----------------------------------------------------------------| 




d|----------------------------------------------------------------| 
B|--------------------6/8-8-8-6-6-5-------------------------------|
G|-7-7-7-7-7-7-7-7-0--7/9-9-9-7-7-5-------------------------------|
D|-7-7-7-7-7-7-7-7-0----------------------------------------------|
G|-7-7-7-7-7-7-7-7-0----------------0-----------------------------|
D|----------------------------------------------------------------|



Solo:

  
  1:23
   Oh baby     what I would do                         For one
d|----------------------------------------------------------------| 
B|---------11p10-----------11--------------6-p-5-----------6------|
G|---------10--------------10--------------5---------------5------|
D|----------------------------------------------------------------|
G|-6/8-8---8---8---8---8---8---0---5---5---5---5---5---5---5---0--|
D|----------------------------------------------------------------| 



  minute   alone with you                              you 
d|----------------------------------------------------------------| 
B|---------11p10---10--10--11--------------6-p-5---5---5---6------|
G|---------10------10--10--10--------------5-------5---5---5------|
D|----------------------------------------------------------------|
G|-6/8-8---8---8---8---8---8---0---5---5---5---5---5---5---5---0--|
D|----------------------------------------------------------------| 



  got me tremblin' way down and side                        and your
d|----------------------------------------------------------------| 
B|---------11------10------11--------------6---6---5---5---6------|
G|---------10------10------10--------------5---5---5---5---5------|
D|----------------------------------------------------------------|
G|-6/8-8---8---8---8---8---8---0---5---5---5---5---5---5---5---0--|
D|----------------------------------------------------------------|



  love I just can't hide
d|----------------------------------------------------------------| 
B|--------------------6/8-8-8-6-6-5-------------------------------|
G|-7-7-7-7-7-7-7-7-0--7/9-9-9-7-7-5-------------------------------|
D|-7-7-7-7-7-7-7-7-0----------------------------------------------|
G|-7-7-7-7-7-7-7-7-0----------------0-----------------------------|
D|----------------------------------------------------------------|



Bridge (Play this section twice):


  1:38
                                                   Darlin' I 
d|----------------------------------------------------------------| 
B|---------6-p-5-------6-p-5---------------6-p-5---------6--------|
G|---------5-----------5-------------------5-------------5--------|
D|----------------------------------------------------------------|
G|-5--(5)--5---5---5---5---5---5---5---5---5---5---5---5---0------|
D|----------------------------------------------------------------|  



   need you
d|----------------------------------------------------------------| 
B|-2-2-2-2-2-2-2-2-3-3-3-3-3-3-3-3--------------------------------|
G|-2-2-2-2-2-2-2-2-3-3-3-3-3-3-3-3--------------------------------|
D|-2-2-2-2-2-2-2-2-3-3-3-3-3-3-3-3--------------------------------|
G|-2-2-2-2-2-2-2-2-3-3-3-3-3-3-3-3--------------------------------|
D|----------------------------------------------------------------| 



Outro:


  1:51

d|----------------------------------------------------------------| 
B|-5-5-5-5-5-5-5-5-2-2-2-2-3-3-3-3-5-5-5-5-6-6-6-6-6-5------------|
G|-5-5-5-5-5-5-5-5-2-2-2-2-3-3-3-3-5-5-5-5-5-5-5-5-5-5------------|
D|-5-5-5-5-5-5-5-5-2-2-2-2-3-3-3-3-5-5-5-5-7-7-7-7-7-5------------|
G|-5-5-5-5-5-5-5-5-2-2-2-2-3-3-3-3-5-5-5-5-5-5-5-5-5-5------------|
D|----------------------------------------------------------------|
Tap to rate this tab
# A B C D E F G H I J K L M N O P Q R S T U V W X Y Z