Song name
# A B C D E F G H I J K L M N O P Q R S T U V W X Y Z

Black Keys - The Flame tab

                                  ~~~~~~~~~~~~~~~~~~~~~~~~~~~~~~~~~~~~~~~~
                                                 The Flame
                                               The Black Keys
                                                Magic Potion
                                  ~~~~~~~~~~~~~~~~~~~~~~~~~~~~~~~~~~~~~~~~
Tabbed by: Connor O.
Tuning: Standard



Comment or message any ideas or corrections. Please rate my tab. 



Key:
where # represents a fret number

#h# - hammer
#p# - pull
/ \ - slides, up and down respectively.
#b# - bend from normal note up to achieve bended note.
#r# - release bend from bended note to normal note.
pb# - pre-bend. on fret #, bend up a half step then 
     attack and release
#b  - curl. not a full bend, just slight.

 &  - substitution. some symbols (like 5h7 for instance)
      are too big to fit inbetween bass-line hits. " & "
      is used to fit such symbols into the bass-line with out 
      having to increase the spacing of the bass-line. The 
      " & " symbol is used within the boxes and the symbol 
      it is substituting for is shown out side the box. 
      Here is 2:28 shown as an example:



Without:

E|-------------------------------------|
B|-------------5-7-5b7r5-7-7-7---5-7---|
G|---5---------------------------------|  
D|-7---7-------------------------------|
A|-0---0---0---0---0-----0-----0---0---|
E|-------------------------------------|


With:

E|-------------------------------------|
B|-------------5-7-&---&-----5-7-------|
G|---5---------------------------------| &1 = 5b7r5  
D|-7---7-------------------------------| &2 = 7-7-7
A|-0---0---0---0---0---0---0---0-------|
E|-------------------------------------|



The actual tab starts here.



Intro:


  0:00

E|-------------------------------------|
B|-------------------------------------|
G|-------5-------------5h7-5-----------|
D|---5-7---7-----------------7---------|
A|-7---0---0---0---0---0---0---0---0---|
E|-------------------------------------|


  0:05

E|-------------------------------------|
B|-------------------------------------|
G|-------------------------------------|
D|---5-----------------------5---------|
A|-7---7---------------5h7-------------|
E|-0---0---0---0---0---0---0---0-------|


  0:09

E|-------------------------------------|
B|-------------------------------------|
G|---5-------------5h7-5h7-&-5---------| & = 5h7
D|-7---7-----------------------7-------|
A|-0---0---0---0---0---0---0---0-------|
E|-------------------------------------|
                           
                                               
  0:13                                         
                    
E|-------------------------------------|
B|-------------------------------------|
G|-------------------------------------|
D|---5---------------------5---5-------|
A|-7---7---------------5h7---7---------|
E|-0---0---0---0---0---0---0---0-------|


  0:17

E|-------------------------------------|
B|-------------------------------------|
G|---5-----------------5h7---5---------|
D|-7---7-----------------------7-------|
A|-0---0---0---0---0---0---0---0-------|
E|-------------------------------------|


  0:21

E|-------------------------------------|
B|-----------------8-------------------|
G|-------------------7/9-5---7p5-------|
D|---5---------------------------------|
A|-7---7-------------------------------|
E|-0---0---0---0---0---0---0---0-------|


  0:25

E|-------------------------------------|
B|-------------------------------------|
G|---5-----------------5h7---5---------|
D|-7---7-----------------------7-------|
A|-0---0---0---0---0---0---0---0-------|
E|-------------------------------------|


  0:29

E|-------------------------------------|
B|-------------------------------------|
G|-------------------------------------|
D|---5-----------------------5---------|
A|-7---7---------------5h7-------------|
E|-0---0---0---0---0---0---0---0-------|



Verse 1:


  0:33
  Out of all the things
E|-------------------------------------|
B|-------------------------------------|
G|---5---------------------------------|
D|-7---7-------------------------------|
A|-0---0---0---0---0---0---0---0-------|
E|-------------------------------------|


  0:36
  You've ever done
E|-------------------------------------|
B|-------------------------------------|
G|-------------------------------------|
D|---5-------------------------5-------|
A|-7---7-------------------7-----------|
E|-0---0---0---0---0---0---0---0-------|


  0:40
  This time I can't go back
E|-------------------------------------|
B|-------------------------------------|
G|---5---------------------------------|
D|-7---7-------------------------------|
A|-0---0---0---0---0---0---0---0-------|
E|-------------------------------------|


  0:44

E|-------------------------------------|
B|-----------------8-------------------|
G|-------------------7/9-----9\7-------|
D|---5---------------------------------|
A|-7---7-------------------------------|
E|-0---0---0---0---0---0---0---0-------|


  0:48
  When a heart gets broke
E|-------------------------------------|
B|-------------------------------------|
G|---5---------------------------------|
D|-7---7-------------------------------|
A|-0---0---0---0---0---0---0---0-------|
E|-------------------------------------|


  0:52
  As many times
E|-------------------------------------|
B|-------------------------------------|
G|-------------------------------------|
D|---5-------------------------5-------|
A|-7---7-------------------7-----------|
E|-0---0---0---0---0---0---0---0-------|


  0:56
  It's easy to lose track
E|-------------------------------------|
B|-------------------------------------|
G|---5---------------------------------|
D|-7---7-------------------------------|
A|-0---0---0---0---0---0---0---0-------|
E|-------------------------------------|


  0:59

E|-------------------------------------|
B|-------------------------------------|
G|-------------------------------------|
D|---5-----------------------5---------|
A|-7---7---------------5/7-------------|
E|-0---0---0---0---0---0---0---0-------|



Chorus:


  1:03
  Takin' all this pain, and you know, I can't re-gain
E|-5------7------5---|
B|-6------8------6---|
G|-7------9------7---|  X2
D|-7------9------7---|
A|-5------7------5---|
E|-5------7------5---|


  1:15

E|-8/10---8----------------------------|
B|----------10p8-----------------------|
G|---------------9---5-7-5-------------|
D|-------------------------------7-----|
A|---------------------------5---------|
E|-------------------------------------|



Bridge:


  1:19
  The Flame
E|-------------------------------------|
B|-------------------------------------|
G|---5---------------------------------|
D|-7---7---------------5h7---5---------|
A|-0---0---0---0---0---0---0---0-------|
E|-------------------------------------|


  1:23

E|-------------------------------------|
B|-------------------------------------|
G|-------------------------------------|
D|---5-----------------------5---------|
A|-7---7---------------7---------------|
E|-0---0---0---0---0---0---0---0-------|


  1:27

E|-------------------------------------|
B|-------------8-----------------------|
G|---5-----------7/9-------&-5---------| & = 5h7
D|-7---7-------------------------------|
A|-0---0---0---0---0---0---0---0-------|
E|-------------------------------------|


  1:30

E|-------------------------------------|
B|-------------------------------------|
G|-------------------------------------|
D|---5-----------------5---------------|
A|-7---7-------------------------------|
E|-0---0---0---0---0---0---0---0-------|



Verse 2:


  1:34
  Like a dream to me
E|-------------------------------------|
B|-------------------------------------|
G|---5---------------------------------|
D|-7---7-------------------------------|
A|-0---0---0---0---0---0---0---0-------|
E|-------------------------------------|


  1:38
  Time with you
E|-------------------------------------|
B|-------------------------------------|
G|-------------------------------------|
D|---5---------------------5-----------|
A|-7---7-------------------------------|
E|-0---0---0---0---0---0---0---0-------|


  1:42
  So unreal
E|-------------------------------------|
B|-------------------------------------|
G|---5---------------------------------|
D|-7---7-------------------------------|
A|-0---0---0---0---0---0---0---0-------|
E|-------------------------------------|


  1:46

E|-------------------------------------|
B|-------------------------------------|
G|-------------------------------------|
D|---5---------------------5-----------|
A|-7---7-----------7-------------------|
E|-0---0---0---0---0---0---0---0-------|


  1:50
  Maybe another life
E|-------------------------------------|
B|-------------------------------------|
G|---5---------------------------------|
D|-7---7-------------------------------|
A|-0---0---0---0---0---0---0---0-------|
E|-------------------------------------|


  1:54
  Love for me
E|-------------------------------------|
B|-------------------------------------|
G|-------------------------------------|
D|---5-------------------------5-------|
A|-7---7-------------------------------|
E|-0---0---0---0---0---0---0---0-------|


  1:58
  Is what you feel
E|-------------------------------------|
B|-------------------------------------|
G|---5---------------------------------|
D|-7---7-------------------------------|
A|-0---0---0---0---0---0---0---0-------|
E|-------------------------------------|


  2:02

E|-------------------------------------|
B|-------------------------------------|
G|-------------------------------------|
D|---5-----------------------5---------|
A|-7---7---------------5/7-------------|
E|-0---0---0---0---0---0---0---0-------|



Chorus:


  2:05
  Takin' all this pain, and you know, I can't re-gain
E|-5------7------5---|
B|-6------8------6---|
G|-7------9------7---|  X2
D|-7------9------7---|
A|-5------7------5---|
E|-5------7------5---|


  2:17

E|-8/10---8----------------------------|
B|----------10p8-----------------------|
G|---------------9---5-7-5-------------|
D|-------------------------------7-----|
A|---------------------------5---------|
E|-------------------------------------|



Bridge:


  2:21
  The Flame
E|-------------------------------------|
B|-------------------------------------|
G|---5-7p5-----------------------------|
D|-7-------7-----------5h7---5---------|
A|-0---0---0---0---0---0---0---0-------|
E|-------------------------------------|


  2:25

E|-------------------------------------|
B|-------------8-----------------------|
G|-----------------7/9-----&-5---------| & = 5h7
D|---5---------------------------------|
A|-7---7-------------------------------|
E|-0---0---0---0---0---0---0---0-------|


  2:28

E|-------------------------------------|
B|-------------5-7-&---&-----5-7-------|
G|---5---------------------------------| &1 = 5b7r5  
D|-7---7-------------------------------| &2 = 7-7-7
A|-0---0---0---0---0---0---0---0-------|
E|-------------------------------------|


  2:32

E|-------------------------------------|
B|-------------------------------------|
G|-----------5---------------5-7-------|
D|---5-7---7---7-7/9-9---9\7-----------|
A|-7-----------------------------------|
E|-0---0---0---0---0---0---0---0-------|



Solo 1:
 

  2:36
  
E|-------------8-&-&-8-----------------|
B|---------8-&---------10--8-----------| 
G|-7/9-----------------------9\7-------|  &1 = 10
D|-------------------------------------|  &2 = 10
A|-0---0---0---0---0---0---0---0-------|  &3 = 8h10
E|-------------------------------------|


  2:40

E|-------------------------------------|
B|-------------------------------------|
G|-------------------------------------|
D|---5-7---7---5-----------5-7---------|
A|-7-------------7-----5/7-------------|
E|-0---0---0---0---0---0---0---0-------| 


  2:44

E|-------------------------------------|
B|-------------------8---&-&-8---------|  
G|-7~~~~p5-7p5-7/9-------------9-------|  &1 = 8h10
D|-------------------------------------|  &2 = 8h10
A|-0---0---0---0---0---0---0---0-------|
E|-------------------------------------|


  2:47

E|-------------------------------------|
B|-------------------------------------|
G|-----------5-7-5---------------------|
D|---5-----7-------7-5-----------------|
A|-7---7---------------7---5/7-5-------|
E|-0---0---0---0---0---0---0---0-------| 



Bridge:


  2:51

E|-------------------------------------|
B|-----------------8-------------------|
G|---5---------------7/9-5---7p5-------|
D|-7---7-------------------------------|
A|-0---0---0---0---0---0---0---0-------|
E|-------------------------------------|


  2:55

E|-------------------------------------|
B|-------------------------------------|
G|-------------------------5-----------|
D|---5-------------5-------------------|  & = 5h7
A|-7---7---------&---------------------|
E|-0---0---0---0---0---0---0---0-------| 
 

  2:58

E|-------------------------------------|
B|-------------------8-----------------|
G|---5-----------7-----7/9~&-----------|  & = \7p5
D|-7---7-----------------------7-------|
A|-0---0---0---0---0---0---0---0-------|
E|-------------------------------------|


  3:02

E|-------------------------------------|
B|-------------------------------------|
G|-------------------------------------|
D|---5---------------5-----7-----------|
A|-7---7-------7-----------------------|
E|-0---0---0---0---0---0---0---0-------|



Verse 3:


  3:06 
  Greater men
E|-------------------------------------|
B|-------------------------------------|
G|---5---------------------------------|
D|-7---7-------------------------------|
A|-0---0---0---0---0---0---0---0-------|
E|-------------------------------------|


  3:10
  Made it here
E|-------------------------------------|
B|-------------------------------------|
G|-------------------------------------|
D|---5---------------------------------|
A|-7---7-------------------------------|
E|-0---0---0---0---0---0---0---0-------|


  3:14
  Only to turn back
E|-------------------------------------|
B|-------------------------------------|
G|---5---------------------------------|
D|-7---7-------------------------------|
A|-0---0---0---0---0---0---0---0-------|
E|-------------------------------------|


  3:18

E|-------------------------------------|
B|---------------8---------------------|
G|-----------------5/7\5--!5h7p5!------|  ! = ghost note this part.
D|---5---------------------------------|      no pick attack. just 
A|-7---7-------------------------------|      hammer on and pull off
E|-0---0---0---0---0---0---0---0-------|      with fret fingers.


  3:21
  So cut me loose
E|-------------------------------------|
B|-------------------------------------|
G|---5---------------------------------|
D|-7---7-------------------------------|
A|-0---0---0---0---0---0---0---0-------|
E|-------------------------------------|


  3:25
  If you want
E|-------------------------------------|
B|-------------------------------------|
G|-------------------------------------|
D|---5-------------------------5-------|
A|-7---7---------------7---7-----------|
E|-0---0---0---0---0---0---0---0-------|


  3:29
  Or tighten up the slack
E|-------------------------------------|
B|-------------------------------------|
G|---5---------------------------------|
D|-7---7-------------------------------|
A|-0---0---0---0---0---0---0---0-------|
E|-------------------------------------|


  3:33

E|-------------------------------------|
B|-------------8-----------------------|
G|-------------------------------------|
D|---5---------------------5-----------|
A|-7---7---------------5/7-------------|
E|-0---0---0---0---0---0---0---0-------|



Chorus:


  3:36
  Takin' all this pain, and you know, we can't re-gain
E|-5------7------5---|
B|-6------8------6---|
G|-7------9------7---|  X2
D|-7------9------7---|
A|-5------7------5---|
E|-5------7------5---|


  3:48

E|--------8----------------------------|
B|-8/10-----10p8-----------------------|
G|---------------9---5-7-5-------------|
D|-------------------------------7-----|
A|---------------------------5---------|
E|-------------------------------------|



Bridge:


  3:52
  The Flame
E|-------------------------------------|
B|-------------------------------------|
G|---5---------------------------------|
D|-7---7---------------5h7---5---------|
A|-0---0---0---0---0---0---0---0-------|
E|-------------------------------------|


  3:55

E|-------------------------------------|
B|-------------------------------------|
G|-------------------------------------| 
D|---5-----------------------5---------|
A|-7---7---------------5h7-------------|
E|-0---0---0---0---0---0---0---0-------|


  4:00

E|-------------------------------------|
B|-------------8-----------------------|
G|---5-----------7/9-----5h7-5---------|  
D|-7---7-------------------------------| 
A|-0---0---0---0---0---0---0---0-------|
E|-------------------------------------|


  4:03

E|-------------------------------------|
B|-------------8-----------------------|
G|---------------9\7-5-7p5-7p5---------|
D|---5-------------------------7-------|
A|-7---7-------------------------------|
E|-0---0---0---0---0---0---0---0-------|



Solo 2:
 

  4:07
  
E|-------------------------------------|
B|-------------------------------------| 
G|---5-------------5---5-9\7---5-------|  
D|-7---7-------5h7---7-----------------|  
A|-0---0---0---0---0---0---0---0-------|  
E|-------------------------------------|


  4:10

E|-------------------------------------|                  For &1 and &2 
B|-------------------------------------|                  you are bending
G|-------------&---pb7-&---pb7-5-------|  &1 = 7b9-9-9    up to 9 and then
D|---5---------------------------------|  &2 = 7b9-9-9    picking that bended
A|-7---7-------------------------------|                  string.
E|-0---0---0---0---0---0---0---0-------|  


  4:14

E|-------------------------------------|
B|-------------8-----------------------|  
G|---5-----------9\7-5-7p5---5---------|  
D|-7---7-------------------7---7-------|  
A|-0---0---0---0---0---0---0---0-------|
E|-------------------------------------|


  4:18

E|-------------------------------------|
B|-------------------------------------|
G|-------------------------------------|
D|---5---------------------5-----------|
A|-7---7-------5h7---------------------|
E|-0---0---0---0---0---0---0---0-------| 



Outro:


  4:21

E|-5------3/5---8\5---|
B|-5------4/6---8\5---|
G|-5------5/7---8\5---|  
D|-7------5/7--10\7---|    
A|-7------3/5--10\7---|
E|-5------3/5---8\5---|
Tap to rate this tab
# A B C D E F G H I J K L M N O P Q R S T U V W X Y Z