Song name
# A B C D E F G H I J K L M N O P Q R S T U V W X Y Z

Black Keys - Heavy Soul tab

-------------------------------------------------------------------------------
                              Black Keys - Heavy Soul
-------------------------------------------------------------------------------

Album : The Big Come Up (2002)
Tempo : 90
E-mail: gwendal.mollo@orange.fr
Tabbed by: newg

Guitar Dropped D


Intro :

E |----------------------------||
B |----------------------------||
G |----------------------------||
D |----------------------------||
A |--------------------0-------||
D |--------0M----3h-5----------||

  D5
|---------------------------------------------------|
|-3-----3-------------------------------------------|
|-2.----2-----------------2b------------------------|
|-0-----0-----------------------------0-----0-------|
|----------------------------------------3----------|
|---------------------------------------------------|

  D5
|---------------------------------------------------|
|--3-----3------------------------------------------|
|--2.----2------------------------------------------|
|--0-----0------------------------------------------|
|--------------------------------------------0------|
|--------------------------------0M----3h-5---------|  x2

Verses :

  D5
|---------------------------------------------------|
|-3-----3-------------------------------------------|
|-2.----2-----------------2b------------------------|
|-0-----0-----------------------------0-----0-------|
|----------------------------------------3----------|
|---------------------------------------------------|

  D5
|---------------------------------------------------|
|--3-----3------------------------------------------|
|--2.----2------------------------------------------|
|--0-----0------------------------------------------|
|--------------------------------------------0------|
|--------------------------------0M----3h-5---------| x3

  D5
|---------------------------------------------------|
|-3-----3-------------------------------------------|
|-2.----2-----------------2b------------------------|
|-0-----0-----------------------------0-----0-------|
|----------------------------------------3----------|
|---------------------------------------------------|

  D5
|---------------------------------------------------|
|--3-----3------------------------------------------|
|--2.----2------------------------------------------|
|--0-----0------------------------------------------|
|----------------------------------------3h-5~------|
|---------------------------------------------------|

Chorus :
Gtr1 :
        D5
|----------------------x--------------------------|
|-------3-----------x--x--------------------------|
|-------2-----------x-----------------------------|
|-------0-----------x--x--------------------------|
|-------------------------------------------------|
|-0M----------3-----------5.----5M----3-----------|  x5 

Gtr2 :
 D5     F5    G5    F5
|--------------------------||
|--------------------------||
|--------------------------||
|-0--0--3-----5.-5--3------||
|-0--0--3-----5.-5--3------||
|-0--0--3-----5.-5--3------||  x5

Outro : 
   D5
|------||
|---3--||
|---2--||
|---0--||
|------||
|------|| 



Intro x2
Verse 1 x4
Chorus 1 x5
Verse 2 x4 
Chorus 2 x6
Verse 3 x4
Chorus 3/solo x12
end : D5
Tap to rate this tab
# A B C D E F G H I J K L M N O P Q R S T U V W X Y Z