Song name
# A B C D E F G H I J K L M N O P Q R S T U V W X Y Z

Black Keys - Strange Times tab

This is my second tab and it took a while to do.
I noticed there were no tabs on this song so I done this one.
I'm certain that it's 100% correct.
I hope you people will enjoy it.

________________________________________________________________

Intro:

E -------------------------|------------------|-------------------------------|
B -------------------------|------------------|-------------------------------|
G -------------------------|------------------|-------------------------------|
D -------------------------|------------------|-----------4-3-2---------------|
A ----------4h6------------|---------4--------|--------4----------------------|
E ------4h6-----4h6--------|----4h6----6-4-2--|----0h2------------------------|

E -------------------------|------------------|-------------------------------|
B -------------------------|------------------|-------------------------------|
G -------------------------|------------------|-------------------------------|
D -------------------------|------------------|-----------4-3-2---------------|
A ----------4h6------------|---------4--------|--------4----------------------|
E ------4h6-----4h6--------|----4h6----6-4-2--|----0h2------------------------|



Verse 1:

Kings and Sons of God
E -------------------|-------------------|--------------|------------------------|
B -------------------|-------------------|--------------|------------------------|
G -------------------|-------------------|--------------|------------------------|
D -------------------|-------------------|--------------|------------------------|
A -------------------|-------------------|--------------|------------------------|
E ------4h6----------|---4h6----4h6------|------0h2-----|---0h2----0h2-----------|

Travel on their way from here
E -------------------|-------------------|--------------|------------------------|
B -------------------|-------------------|--------------|------------------------|
G -------------------|-------------------|--------------|------------------------|
D -------------------|-------------------|--------------|------------------------|
A -------------------|-------------------|--------------|------------------------|
E ------4h6----------|---4h6----4h6------|------0h2-----|---0h2----0h2-----------|

Calming restless mobs
E -------------------|-------------------|--------------|------------------------|
B -------------------|-------------------|--------------|------------------------|
G -------------------|-------------------|--------------|------------------------|
D -------------------|-------------------|--------------|------------------------|
A -------------------|-------------------|--------------|------------------------|
E ------4h6----------|---4h6----4h6------|------0h2-----|---0h2----0h2-----------|

Easing all of their, all of their fears
E -------------------|-------------------|--------------|------------------------|
B -------------------|-------------------|--------------|------------------------|
G -------------------|-------------------|--------------|------------------------|
D -------------------|-------------------|--------------|------------------------|
A -------------------|-------------------|--------------|------------------------|
E ------4h6----------|---4h6----4h6------|------0h2-----|---0h2----0h2-----------|



Chorus 1:

Strange times are here
  A#m                                                            F#
E -6----6----6----6----|----6----6----6----6----|----2----2----2----2----|----2----2----2----2----|
B -6----6----6----6----|----6----6----6----6----|----2----2----2----2----|----2----2----2----2----|
G -6----6----6----6----|----6----6----6----6----|----3----3----3----3----|----3----3----3----3----|
D -8----8----8----8----|----8----8----8----8----|----4----4----4----4----|----4----4----4----4----|
A -8----8----8----8----|----8----8----8----8----|----4----4----4----4----|----4----4----4----4----|
E -6----6----6----6----|----6----6----6----6----|----2----2----2----2----|----2----2----2----2----|

Strange times are here
  A#m                                                            F#
E -6----6----6----6----|----6----6----6----6----|----2----2----2----2----|----2----2----2----2----|
B -6----6----6----6----|----6----6----6----6----|----2----2----2----2----|----2----2----2----2----|
G -6----6----6----6----|----6----6----6----6----|----3----3----3----3----|----3----3----3----3----|
D -8----8----8----8----|----8----8----8----8----|----4----4----4----4----|----4----4----4----4----|
A -8----8----8----8----|----8----8----8----8----|----4----4----4----4----|----4----4----4----4----|
E -6----6----6----6----|----6----6----6----6----|----2----2----2----2----|----2----2----2----2----|



Interlude:

E -------------------------|------------------|-------------------------------|
B -------------------------|------------------|-------------------------------|
G -------------------------|------------------|-------------------------------|
D -------------------------|------------------|-----------4-3-2---------------|
A ----------4h6------------|---------4--------|--------4----------------------|
E ------4h6-----4h6--------|----4h6----6-4-2--|----0h2------------------------|

E -------------------------|------------------|-------------------------------|
B -------------------------|------------------|-------------------------------|
G -------------------------|------------------|-------------------------------|
D -------------------------|------------------|-----------4-3-2---------------|
A ----------4h6------------|---------4--------|--------4----------------------|
E ------4h6-----4h6--------|----4h6----6-4-2--|----0h2------------------------|



Verse 2:

Statue in the square
E -------------------|-------------------|--------------|------------------------|
B -------------------|-------------------|--------------|------------------------|
G -------------------|-------------------|--------------|------------------------|
D -------------------|-------------------|--------------|------------------------|
A -------------------|-------------------|--------------|------------------------|
E ------4h6----------|---4h6----4h6------|------0h2-----|---0h2----0h2-----------|

Meant so much when it first stood
E -------------------|-------------------|--------------|------------------------|
B -------------------|-------------------|--------------|------------------------|
G -------------------|-------------------|--------------|------------------------|
D -------------------|-------------------|--------------|------------------------|
A -------------------|-------------------|--------------|------------------------|
E ------4h6----------|---4h6----4h6------|------0h2-----|---0h2----0h2-----------|

People come from far and near
E -------------------|-------------------|--------------|------------------------|
B -------------------|-------------------|--------------|------------------------|
G -------------------|-------------------|--------------|------------------------|
D -------------------|-------------------|--------------|------------------------|
A -------------------|-------------------|--------------|------------------------|
E ------4h6----------|---4h6----4h6------|------0h2-----|---0h2----0h2-----------|

Bless them if, bless them if it would
E -------------------|-------------------|--------------|------------------------|
B -------------------|-------------------|--------------|------------------------|
G -------------------|-------------------|--------------|------------------------|
D -------------------|-------------------|--------------|------------------------|
A -------------------|-------------------|--------------|------------------------|
E ------4h6----------|---4h6----4h6------|------0h2-----|---0h2----0h2-----------|


Chorus 2:

Strange times are here
  A#m                                                            F#
E -6----6----6----6----|----6----6----6----6----|----2----2----2----2----|----2----2----2----2----|
B -6----6----6----6----|----6----6----6----6----|----2----2----2----2----|----2----2----2----2----|
G -6----6----6----6----|----6----6----6----6----|----3----3----3----3----|----3----3----3----3----|
D -8----8----8----8----|----8----8----8----8----|----4----4----4----4----|----4----4----4----4----|
A -8----8----8----8----|----8----8----8----8----|----4----4----4----4----|----4----4----4----4----|
E -6----6----6----6----|----6----6----6----6----|----2----2----2----2----|----2----2----2----2----|

Strange times are here
  A#m                                                            F#
E -6----6----6----6----|----6----6----6----6----|----2----2----2----2----|----2----2----2----2----|
B -6----6----6----6----|----6----6----6----6----|----2----2----2----2----|----2----2----2----2----|
G -6----6----6----6----|----6----6----6----6----|----3----3----3----3----|----3----3----3----3----|
D -8----8----8----8----|----8----8----8----8----|----4----4----4----4----|----4----4----4----4----|
A -8----8----8----8----|----8----8----8----8----|----4----4----4----4----|----4----4----4----4----|
E -6----6----6----6----|----6----6----6----6----|----2----2----2----2----|----2----2----2----2----|



Interlude 2:

E -------------------------|------------------|-------------------------------|
B -------------------------|------------------|-------------------------------|
G -------------------------|------------------|-------------------------------|
D -------------------------|------------------|-----------4-3-2---------------|
A ----------4h6------------|---------4--------|--------4----------------------|
E ------4h6-----4h6--------|----4h6----6-4-2--|----0h2------------------------|

E -------------------------|------------------|-------------------------------|
B -------------------------|------------------|-------------------------------|
G -------------------------|------------------|-------------------------------|
D -------------------------|------------------|-----------4-3-2---------------|
A ----------4h6------------|---------4--------|--------4----------------------|
E ------4h6-----4h6--------|----4h6----6-4-2--|----0h2------------------------|


Verse 3:

Sadie dry your tear
E -------------------|-------------------|--------------|------------------------|
B -------------------|-------------------|--------------|------------------------|
G -------------------|-------------------|--------------|------------------------|
D -------------------|-------------------|--------------|------------------------|
A -------------------|-------------------|--------------|------------------------|
E ------4h6----------|---4h6----4h6------|------0h2-----|---0h2----0h2-----------|

I will be the one
E -------------------|-------------------|--------------|------------------------|
B -------------------|-------------------|--------------|------------------------|
G -------------------|-------------------|--------------|------------------------|
D -------------------|-------------------|--------------|------------------------|
A -------------------|-------------------|--------------|------------------------|
E ------4h6----------|---4h6----4h6------|------0h2-----|---0h2----0h2-----------|

To pull you through the mirror
E -------------------|-------------------|--------------|------------------------|
B -------------------|-------------------|--------------|------------------------|
G -------------------|-------------------|--------------|------------------------|
D -------------------|-------------------|--------------|------------------------|
A -------------------|-------------------|--------------|------------------------|
E ------4h6----------|---4h6----4h6------|------0h2-----|---0h2----0h2-----------|

Before you come, before you come undone
E -------------------|-------------------|--------------|------------------------|
B -------------------|-------------------|--------------|------------------------|
G -------------------|-------------------|--------------|------------------------|
D -------------------|-------------------|--------------|------------------------|
A -------------------|-------------------|--------------|------------------------|
E ------4h6----------|---4h6----4h6------|------0h2-----|---0h2----0h2-----------|



Chorus 3:

Strange times are here
  A#m                                               F#
E -6----6----6----6----|----6----6----6----6----|----2----2----2----2----|----2----2----2----2----|
B -6----6----6----6----|----6----6----6----6----|----2----2----2----2----|----2----2----2----2----|
G -6----6----6----6----|----6----6----6----6----|----3----3----3----3----|----3----3----3----3----|
D -8----8----8----8----|----8----8----8----8----|----4----4----4----4----|----4----4----4----4----|
A -8----8----8----8----|----8----8----8----8----|----4----4----4----4----|----4----4----4----4----|
E -6----6----6----6----|----6----6----6----6----|----2----2----2----2----|----2----2----2----2----|

Strange times are here
  A#m                                               F#
E -6----6----6----6----|----6----6----6----6----|----2----2----2----2----|----2----2----2----2----|
B -6----6----6----6----|----6----6----6----6----|----2----2----2----2----|----2----2----2----2----|
G -6----6----6----6----|----6----6----6----6----|----3----3----3----3----|----3----3----3----3----|
D -8----8----8----8----|----8----8----8----8----|----4----4----4----4----|----4----4----4----4----|
A -8----8----8----8----|----8----8----8----8----|----4----4----4----4----|----4----4----4----4----|
E -6----6----6----6----|----6----6----6----6----|----2----2----2----2----|----2----2----2----2----|

Strange times are here
  A#m                                               F#
E -6----6----6----6----|----6----6----6----6----|----2----2----2----2----|----2----2----2----2----|
B -6----6----6----6----|----6----6----6----6----|----2----2----2----2----|----2----2----2----2----|
G -6----6----6----6----|----6----6----6----6----|----3----3----3----3----|----3----3----3----3----|
D -8----8----8----8----|----8----8----8----8----|----4----4----4----4----|----4----4----4----4----|
A -8----8----8----8----|----8----8----8----8----|----4----4----4----4----|----4----4----4----4----|
E -6----6----6----6----|----6----6----6----6----|----2----2----2----2----|----2----2----2----2----|

Strange times are here
  A#m                                               F#
E -6----6----6----6----|----6----6----6----6----|----2----2----2----2----|----2----2----2----2----|
B -6----6----6----6----|----6----6----6----6----|----2----2----2----2----|----2----2----2----2----|
G -6----6----6----6----|----6----6----6----6----|----3----3----3----3----|----3----3----3----3----|
D -8----8----8----8----|----8----8----8----8----|----4----4----4----4----|----4----4----4----4----|
A -8----8----8----8----|----8----8----8----8----|----4----4----4----4----|----4----4----4----4----|
E -6----6----6----6----|----6----6----6----6----|----2----2----2----2----|----2----2----2----2----|



Outro:

E -------------------------|------------------|-------------------------------|
B -------------------------|------------------|-------------------------------|
G -------------------------|------------------|-------------------------------|
D -------------------------|------------------|-----------4-3-2---------------|
A ----------4h6------------|---------4--------|--------4----------------------|
E ------4h6-----4h6--------|----4h6----6-4-2--|----0h2------------------------|

E -------------------------|------------------|-------------------------------|
B -------------------------|------------------|-------------------------------|
G -------------------------|------------------|-------------------------------|
D -------------------------|------------------|-----------4-3-2---------------|
A ----------4h6------------|---------4--------|--------4----------------------|
E ------4h6-----4h6--------|----4h6----6-4-2--|----0h2------------------------|

E -------------------------|------------------|-------------------------------|
B -------------------------|------------------|-------------------------------|
G -------------------------|------------------|-------------------------------|
D -------------------------|------------------|-----------4-3-2---------------|
A ----------4h6------------|---------4--------|--------4----------------------|
E ------4h6-----4h6--------|----4h6----6-4-2--|----0h2------------------------|

E -------------------------|------------------|-------------------------------|
B -------------------------|------------------|-------------------------------|
G -------------------------|------------------|-------------------------------|
D -------------------------|------------------|-----------4-3-2---------------|
A ----------4h6------------|---------4--------|--------4----------------------|
E ------4h6-----4h6--------|----4h6----6-4-2--|----0h2---------------4h6~~~---|


Well, that all of it, don't be afraid to give any corrections or comments,
 if there is anything wrong with it, tell me in the comment or correction box.

Hope you enjoyed it.

(Black Keys are great)
Tap to rate this tab
# A B C D E F G H I J K L M N O P Q R S T U V W X Y Z