Song name
# A B C D E F G H I J K L M N O P Q R S T U V W X Y Z

Black Keys - If You See Me tab

                                  ~~~~~~~~~~~~~~~~~~~~~~~~~~~~~~~~~~~~~~~~
                                                If You See Me
                                                  Black Keys
                                                Thickfreakness
                                  ~~~~~~~~~~~~~~~~~~~~~~~~~~~~~~~~~~~~~~~~
Tabbed by: Connor O.
Tuning: Standard



Pretty fast paced song. As a result, I'm not going to time everything out. I'll
only time the parts that might cause serious confusion for the unaided ear. 

A lot of the bass-line parts (e.g. - at 0:10) are hard to hear on account 
of the drums. I tried to tab out the bass-line as best I could but I'm sure I've
missed a beat here or there. I put *'s under the chord boxes to signify bassline
progression chronologically, so if I didn't tab the bassline at a certain point
you'll be able to see where it belongs. 

Comment or message any ideas or corrections. Please rate my tab. If you've got
problems with the tab, I'd encourage you to contact me with those problems so I
can fix the tab or provide advice for playing. Don't just give me a poor rating
and not give me any feedback. The idea is for us all to work together to create
a perfect finished product. This tab just represents the best I can do. It's 
definitely up for peer review.



Key:
where # represents a fret number

#h# - hammer
#p# - pull
/ \ - slides, up and down respectively.
#b# - bend from normal note up to achieve bended note.
#r# - release bend from bended note to normal note.
#pb - bend up on # then attack and release
#b  - a slight bend a.k.a. a curl.
 x  - mute




Intro:


  0:00
    
e|---------0-----------------------|
B|---------0-------3-------2-------|
G|-----0h1---------1-------1-------|
D|---------------------------------|
A|---------------------------------|
E|-0-----------0-------0-----------|
   *   *   *   *   *   *   *   *

  

e|---------0-----------------------|
B|---------------------------------|
G|-----0h1-------------------------|
D|---------------------------------|
A|---------------------------------|
E|-0---------------0---------------|
   *   *   *   *   *   *   *   *



e|---------0-----------------------|
B|---------0-------3-------2-------|
G|-----0h1---------1-------1-------|
D|---------------------------------|
A|---------------------------------|
E|-0-----------0-------0-----------|
   *   *   *   *   *   *   *   *

  

e|---------0-----------------------|
B|---------------------------------|
G|-----0h1-------------------------|
D|---------------------------------|
A|---------------------------------|
E|-0---------------0---------------|
   *   *   *   *   *   *   *   *

  0:08

e|---------0-----------------------|
B|---------0-------3-------2-------|
G|-----0h1---------1-------1-------|
D|---------------------------------|
A|---------------------------------|
E|-0-----------0-------0-----------|
   *   *   *   *   *   *   *   *

  0:10

e|---------0-----------------------|
B|---------0-----------3-----------|
G|-----0h1---------2/4-----2-------|
D|-----------------------------0h2-|
A|---------------------------------|
E|-0-----------0-------------------|
   *   *   *   *   *   *   *   *



e|---------0-----------------------|
B|---------0-------3-------2-------|
G|-----0h1-------------------------|
D|---------------------------------|
A|---------------------------------|
E|-0-----------0-------0-----------|
   *   *   *   *   *   *   *   *

  0:14
                           If  you
e|---------0-----------0-----------|
B|---------0-----------3-----------|
G|-----1---------------1-----------|
D|---------------------------------|
A|---------------------------------|
E|-0-----------0---0---0---3---4---|



Verse 1:


  0:16
   see me    comin'
e|---------------------3-----------|
B|---------------------2-----------|
G|---------------------2---x-------|
D|-----------------2---2---x---2---|
A|-0-------3---4-----------x-------|
E|-------------------------x-------|


  0:18

e|-----3---------------3-----------|
B|-----2---------------2-----------|
G|-----2---------------2---x-------|  X2
D|-----2-----------2---2---x---2---|
A|-0-------3---4-----------x-------|
E|-------------------------x-------|


  0:22
   Open            up  your      door
e|---------------------------------|
B|---------------------------------|
G|---------------------------------|
D|-----2-------2-------2-------2---|
A|-0-------0-------0---------------|
E|-------------------------3-------|




e|---------0-----------------------|
B|---------0-------3-------2-------|
G|-----0h1---------1-------1-------|
D|---------------------------------|
A|---------------------------------|
E|-0-----------0-------0-----------|
   *   *   *   *   *   *   *   *

  

e|---------0-----------------------|
B|---------0-----------3-----------|
G|-----0h1---------2/4-----2-------|
D|-----------------------------0h2-|
A|---------------------------------|
E|-0-----------0-------------------|
   *   *   *   *   *   *   *   *



e|---------0-----------------------|
B|---------0-------3-------2-------|
G|-----0h1---------1-------1-------|
D|---------------------------------|
A|---------------------------------|
E|-0-----------0-------0-----------|
   *   *   *   *   *   *   *   *

  0:30
                           If  you
e|---------0---0-------------------|
B|-------------3-------------------|
G|-----0h1-----1-------------------|
D|---------------------------------|
A|---------------------------------|
E|-0-----------0---0---0---3---4---|


  0:32
   see me    comin'
e|---------------------------------|
B|---------------------------------|
G|-------------------------x-------|
D|-----------------2---2---x---2---|
A|-0-------3---4-----------x-------|
E|-------------------------x-------|


 

e|-----3---------------3-----------|
B|-----2---------------2-----------|
G|-----2---------------2---x-------|  
D|-----2-----------2---2---x---2---|
A|-0-------3---4-----------x-------|
E|-------------------------x-------|


  

e|---------------------3-----------|                  
B|---------------------2-----------|
G|---------------------2---x-------|  
D|-----------------2---2---x---2---|
A|-0---0---3---4-----------x-------|
E|-------------------------x-------|


  0:38
   Open            up  your      door
e|-----3---------------------------|
B|-----2---------------------------|
G|-----2---------------------------|
D|-----2-------2-------2-------2---|
A|-0-------0-------0---------------|
E|-------------------------3-------|




e|---------0-----------------------|
B|---------0-------3-------2-------|
G|-----0h1---------1-------1-------|
D|---------------------------------|
A|---------------------------------|
E|-0-----------0-------0-----------|
   *   *   *   *   *   *   *   *

  0:42

e|-----------0---------------------|
B|-----3/5---3---------------------|
G|-----------------2/4-----2---0h1-|
D|---------------------------------|
A|---------------------------------|
E|-0---0---0---0---0--(0)-(0)-(0)--|
   *   *   *   *   *   *   *   *



e|---------0-----------------------|
B|---------0-------3-------2-------|
G|-----0h1---------1-------1-------|
D|---------------------------------|
A|---------------------------------|
E|-0-----------0-------0-----------|
   *   *   *   *   *   *   *   *

  0:47
                       Ill Give you
e|---------0---0-------------------|
B|---------0---3-------------------|
G|-----0h1-----1-------------------|
D|---------------------------------|
A|---------------------------------|
E|-0-----------0---0---0---3b--0---|



Bridge:


  0:49
   More          lovin'
e|-5-5-5-5-5-5-5-------------------|
B|-4-4-4-4-4-4-4-------2-----------|
G|-4-4-4-4-4-4-4-0-----2-----------|
D|-4-4-4-4-4-4-4-0-----2-----------|
A|-----------------0---0---3---4---|
E|---------------------------------|


  0:51

e|-----3-----------2---------------|
B|-----2-----------2---------------|
G|-----2-----------2---------------|
D|-2---2-----------2---------------|
A|---------3---4------(0)--3---4---|
E|---------------------------------|


  0:53
                       Than any 
e|-----3-------3-------------------|
B|-----2-------2-------------------|
G|-----2-------2-------------------|
D|-2---2-------2-------------------|
A|---------0-------0---0---0---0---|
E|---------------------------------|


  0:55
   man     before
e|---------------------------------|
B|---------------------------------|
G|---------------------------------|
D|-------------2-------------------|
A|-0---0---------------------------|
E|---------3b----------------------|




e|---------0-----------------------|
B|---------0-------3-------2-------|
G|-----0h1---------1-------1-------|
D|---------------------------------|
A|---------------------------------|
E|-0-----------0-------0-----------|
   *   *   *   *   *   *   *   *



e|---------0-----------------------|
B|---------0-----------------------|
G|-----0h1-------------2b4r2-------|
D|---------------------------------|
A|---------------------------------|
E|-0---------------0---------------|
   *   *   *   *   *   *   *   *



e|---------0-----------------------|
B|---------0-------3-------2-------|
G|-----0h1---------1-------1-------|
D|---------------------------------|
A|---------------------------------|
E|-0-----------0-------0-----------|
   *   *   *   *   *   *   *   *

  1:02
                           When I
e|---------0-------0---------------|
B|---------0-------3---------------|
G|-----0h1---------1---------------|
D|---------------------------------|
A|---------------------------------|
E|-0-----------0---0---0---3---4---|



verse 2:


  1:04
   hit your door
e|---------------------3-----------|
B|---------------------2-----------|
G|---------------------2---x-------|
D|-----------------2---2---x---2---|
A|-0-------3---4-----------x-------|
E|-------------------------x-------|




e|-----3---------------3-----------|
B|-----2---------------2-----------|
G|-----2---------------2---x-------|  X2
D|-----2-----------2---2---x---2---|
A|-0-------3---4-----------x-------|
E|-------------------------x-------|


  1:10             treat
   be  tter            me      right   
e|-----3-----------3---3-----------|
B|-----2-----------2---2-----------|
G|-----2-----------2---2-----------|  
D|-----2-----------2---2-------2---|
A|-0-------3---4-------------------|
E|-------------------------3b------|




e|---------0-----------------------|
B|---------0-------3-------2-------|
G|-----0h1---------1-------1-------|
D|---------------------------------|
A|---------------------------------|
E|-0-----------0-------0-----------|
   *   *   *   *   *   *   *   *

  1:14

e|-----------0---------------------|
B|-----3/5---3---------------------|
G|-----------------2/4-----2-------|
D|-----------------------------0h2-|
A|---------------------------------|
E|-0---0---0---0---0--(0)-(0)-(0)--|
   *   *   *   *   *   *   *   *



e|---------0-----------------------|
B|---------0-------3-------2-------|
G|-----0h1---------1-------1-------|
D|---------------------------------|
A|---------------------------------|
E|-0-----------0-------0-----------|
   *   *   *   *   *   *   *   *

  1:18
                           when I 
e|---------0---0-------------------|
B|---------0---3-------------------|
G|-----0h1-----1-------------------|
D|---------------------------------|
A|---------------------------------|
E|-0-----------0---0---0---3---4---|



   hit your door
e|---------------------3-----------|
B|---------------------2-----------|
G|---------------------2---x-------|
D|-----------------2---2---x---2---|
A|-0-------3---4-----------x-------|
E|-------------------------x-------|




e|-----3---------------3-----------|
B|-----2---------------2-----------|
G|-----2---------------2---x-------|  X2
D|-----2-----------2---2---x---2---|
A|-0-------3---4-----------x-------|
E|-------------------------x-------|


  1:26             treat
   be  tter            me      right 
e|-----------------3-------3-------|
B|-----------------2-------2-------|
G|-----------------2-------2-------|
D|-----------------2-------2-------|
A|-0---0---0---0-------0-----------|
E|-----------------------------0---|




e|---------0-----------------------|
B|---------0-------3-------2-------|
G|-----0h1---------1-------1-------|
D|---------------------------------|
A|---------------------------------|
E|-0-----------0-------0-----------|
   *   *   *   *   *   *   *   *



e|---------0-----------------------|
B|---------0-------3/5-------------|
G|-----0h1-----------------2/4-----|
D|---------------------------------|
A|---------------------------------|
E|-0-----------0-------------------|
   *   *   *   *   *   *   *   *



e|---------0-----------------------|
B|---------0-------3-------2-------|
G|-----0h1---------1-------1-------|
D|---------------------------------|
A|---------------------------------|
E|-0-----------0-------0-----------|
   *   *   *   *   *   *   *   *

  1:34
                           Girl I
e|---------0---0-------------------|
B|---------0---3-------------------|
G|-----0h1-----1-------------------|
D|---------------------------------|
A|---------------------------------|
E|-0-----------0---0---0---3b--0---|



Bridge:


  
   Need        you baby
e|-5-5-5-5-5-5-5-------------------|
B|-4-4-4-4-4-4-4-------2-----------|
G|-4-4-4-4-4-4-4-0-----2-----------|
D|-4-4-4-4-4-4-4-0-----2-----------|
A|-----------------0---0---3---4---|
E|---------------------------------|


  

e|-----3--------------3------------|
B|-----2--------------2------------|
G|-----2--------------2------------|
D|-2---2-----------2--2------------|
A|---------3---4-----------3---4---|
E|---------------------------------|


  
                       Got     no
e|-----3---------------3-----------|
B|-----2---------------2-----------|
G|-----2---------------2-----------|
D|-2---2-----------2---2-----------|
A|---------3---4-----------0---0---|
E|---------------------------------|


  
   time    to
e|---------------------------------|
B|---------------------------------|
G|---------------------------------|
D|-------------2-------------------|
A|-0---0---------------------------|
E|---------3b----------------------|




e|---------0-----------------------|
B|---------0-------3-------2-------|
G|-----0h1---------1-------1-------|
D|---------------------------------|
A|---------------------------------|
E|-0-----------0-------0-----------|
   *   *   *   *   *   *   *   *



e|---------0-----------------------|
B|---------0-----------3-----------|
G|-----0h1---------2/4-----2-------|
D|-----------------------------0h2-|
A|---------------------------------|
E|-0-----------0-------------------|
   *   *   *   *   *   *   *   *



e|---------0-----------------------|
B|---------0-------3-------2-------|
G|-----0h1---------1-------1-------|
D|---------------------------------|
A|---------------------------------|
E|-0-----------0-------0-----------|
   *   *   *   *   *   *   *   *



e|---------0---------------0-------|
B|---------0---------------0-------|
G|-----0h1-----2/4---------4-------|
D|---------------------------------|
A|---------------------------------|
E|-0-----------0-------0-----------|
   *   *   *   *   *   *   *   *


Solo/Breakdown:


  1:52

e|---------0-----------------------|
B|---------0-------3-------2-------|
G|-----0h1---------1-------1-------|
D|---------------------------------|
A|---------------------------------|
E|-0-----------0-------0-------0---|
   *   *   *   *   *   *   *   *



e|---------------------------------|
B|-----3---------------3-----------|
G|-2/4-4---2---1---2/4-4---2---0h1-|
D|-----------------------------0h2-|
A|---------------------------------|
E|-0-------0-------0-------0-------|
   *   *   *   *   *   *   *   *



e|---------0-----------------------|
B|---------0-------3-------2-------|
G|-----0h1---------1-------1-------|
D|---------------------------------|
A|---------------------------------|
E|-0-----------0-------0-------0---|
   *   *   *   *   *   *   *   *
 


e|-----0---------------------------|
B|-----3/5-------------------------|
G|-----------2/4---2-------0-------|
D|-------------------------2-------|
A|---------------------------------|
E|-0-------------------------------|
   *   *   *   *   *   *   *   *


Verse 3:


  2:00
   I   can do  for you
e|-----3---------------------------|
B|-----2---------------------------|
G|-----2-------------------2-------|  
D|-----2-----------2---2---2-------|
A|-0-------3---4-----------3---4---|
E|---------------------------------|




e|---------------------3-----------|
B|---------------------2-----------|
G|---------2-----------2---2-------|
D|-2---2---2-------2---2---2-------|
A|---------3---4-----------3---4---|
E|---------------------------------|




e|---------------------3-----------|
B|---------------------2-----------|
G|---------2-----------2-----------|
D|-2---2---2-------2---2-----------|
A|---------3---4-----------0---0---|
E|---------------------------------|



       I'm go  nna do      for you
e|---------------------------------|
B|---------------------------------|
G|---------------------------------|
D|-----------------------------2---|
A|-0---0---0---0---0---0-----------|
E|-------------------------3b------|


  2:08
 
e|---------0-----------------------|
B|---------0-------3-------2-------|
G|-----0h1---------1-------1-------|
D|---------------------------------|
A|---------------------------------|
E|-0-----------0-------0-------0---|
   *   *   *   *   *   *   *   *



e|---------0-----------------------|
B|---------0-------3/5-------------|
G|-----0h1-----------------2/4-----|
D|---------------------------------|
A|---------------------------------|
E|-0-----------0-------------------|
   *   *   *   *   *   *   *   *



e|---------0-----------------------|
B|---------0-------3-------2-------|
G|-----0h1---------1-------1-------|
D|---------------------------------|
A|---------------------------------|
E|-0-----------0-------0-----------|
   *   *   *   *   *   *   *   *

  2:14
                           If  you
e|---------0-------0---------------|
B|---------0-------3---------------|
G|-----0h1---------1---------------|
D|---------------------------------|
A|---------------------------------|
E|-0-----------0---0---0---3---4---|



   do   for  me
e|---------------------3-----------|
B|---------------------2-----------|
G|---------------------2-----------|
D|-----------------2---2-----------|
A|-0-------3---4-----------3---4---|
E|---------------------------------|




e|-----3---------------3-----------|
B|-----2---------------2-----------|
G|-----2---x---2-------2---x---2---|
D|-2---2---x---2-------2---x---2---|
A|---------x-------0-------x-------|
E|---------x---------------x-------|



                               I'm
e|-----3---------------3-----------|
B|-----2---------------2-----------|
G|-----2---------------2---x---2---|
D|-----2-----------2---2---x---2---|
A|-0-------3---4-----------x-------|
E|-------------------------x-------|



   go  nna         do  for you
e|---------3-----------------------|
B|---------2-----------------------|
G|---------2---------------2p0-----|
D|-----2---2-------------------2---|
A|-0-------------------------------|
E|---------------------------------|
   *   *   *   *   *   *   *   *   

  2:24

e|---------0-----------------------|
B|---------0-------3-------2-------|
G|-----0h1---------1-------1-------|
D|---------------------------------|
A|---------------------------------|
E|-0-----------0-------0-----------|
   *   *   *   *   *   *   *   *



e|---------0---------------3b5-----|
B|---------0-------3/5-------------|
G|-----0h1-------------------------|
D|---------------------------------|
A|---------------------------------|
E|-0-----------0-------0-----------|
   *   *   *   *   *   *   *   *



e|---------0-----------------------|
B|---------0-------3-------2-------|
G|-----0h1---------1-------1-------|
D|---------------------------------|
A|---------------------------------|
E|-0-----------0-------0-----------|
   *   *   *   *   *   *   *   *


                           I'll
e|---------0-------0---------------|
B|---------0-------3---------------|
G|-----0h1---------1---------------|
D|---------------------------------|
A|---------------------------------|
E|-0-----------0---0---0---3b--0---|



Bridge:


  2:32
   be          your man
e|-5-5-5-5-5-5-5-------------------|
B|-4-4-4-4-4-4-4-------2-----------|
G|-4-4-4-4-4-4-4-0-----2-----------|
D|-4-4-4-4-4-4-4-0-----2-----------|
A|-----------------0---0---3---4---|
E|---------------------------------|


  

e|-----3--------------3------------|
B|-----2--------------2------------|
G|-----2--------------2------------|
D|-2---2-----------2--2------------|
A|---------3---4-----------3---4---|
E|---------------------------------|


  
                       If  you
e|---------------------3-----------|
B|-----2---------------2-----------|
G|-----2---------------2-----------|
D|-2---2-----------2---2-----------|
A|---------3---4-----------0---0---|
E|---------------------------------|


  
   ask     me
e|-3-------------------------------|
B|-2-------------------------------|
G|-2-------------------------------|
D|-2-----------2-------------------|
A|-----0---------------------------|
E|---------3b----------------------|




e|---------0-----------------------|
B|---------0-------3-------2-------|
G|-----0h1---------1-------1-------|
D|---------------------------------|
A|---------------------------------|
E|-0-----------0-------0-----------|
   *   *   *   *   *   *   *   *



e|---------0-----------------------|
B|---------0-----------------------|
G|-----0h1---------4pb-------------|
D|---------------------------------|
A|---------------------------------|
E|-0-------------------------------|
   *   *   *   *   *   *   *   *



e|---------0-----------------------|
B|---------0-------3-------2-------|
G|-----0h1---------1-------1-------|
D|---------------------------------|
A|---------------------------------|
E|-0-----------0-------0-----------|
   *   *   *   *   *   *   *   *



e|---------0-----------------------|
B|---------------------------------|
G|-----0h1-------------------------|
D|---------------------------------|
A|---------------------------------|
E|-0---------------0---------------|
   *   *   *   *   *   *   *   *

Tap to rate this tab
# A B C D E F G H I J K L M N O P Q R S T U V W X Y Z