Song name
# A B C D E F G H I J K L M N O P Q R S T U V W X Y Z

Black Keys - Juniors Instrumental tab

THE BLACK KEYS

Junior's Intrumental

Transcribed by Danleary

Key

 b : Bend
 r : Release
 / : Slide into
 \ : Slide out of
 h : Hammer on
 p : Pull off
(-): Ghost note
 ~ : Vibrato
 x : Mute
 U : Up stroke
 D : Down stroke
 T : Fret with thumb
 . : Staccato 

___________________________________________________________

Standard Tuning
___________________________________________________________


As always (or nearly anyways), delta style fingerpicked using only thumb 
and index.

e|-----------------------------------------------------------|
B|------3--------3h5-3p0--------------------------3----------|
G|2-2-0---2-------------------2h4-2p0-----2p0-2/4---4\2p0----|
D|--------------------------------------------------------2--|
A|-------------------------------------2------0--------------|
E|------------0-----------0----------------------------------|


e|-------------------------------------------|
B|--3h5-3p0-----------------------3----------|
G|-------------2h4-2p0----2p0-2/4---4\2p0----|
D|----------------------------------------2--|
A|---------------------2------0--------------|
E|0---------0--------------------------------|

0:12


e|---------------------------------------------------|
B|----------------------------------------3----------|
G|------0h2-0h2-------2-0h2-----2p0---2/4---4\2p0----|
D|------------------------------------------------2--|
A|0-----------0-----------0-----------0--------------|
E|---------------------------------------------------|


0:16

e|---------------------------------------------|
B|---------------------------3-----------------|
G|------2---0h2-----2--0-----------2------0h2--|
D|---------------------------------------------|
A|0-----0-----0-----------0-----0--------------|
E|---------------------------------------------|


0:21

e|-------------------------------------------|
B|--3h5-3p0-----------------------3----------|
G|-------------2h4-2p0----2p0-2/4------------|
D|-------------------------------------------|
A|-------------------------------------------|
E|0------------------------------------------|


e|-------------------------------------------|
B|--3h5-3p0-----------------------3----------|
G|-------------2h4-2p0----2p0-2/4---4\2p0----|
D|----------------------------------------2--|
A|---------------------2------0--------------|
E|0---------0--------------------------------|

0:29

e|-----------------------------------------------|
B|----------------------------------------3------|
G|------0h2-0h2-----2---0h2-----2---0h2-----2/4--|
D|-----------------------------------------------|
A|0-----0-----------0-----0-----0-----0----------|
E|-----------------------------------------------|

0:34

e|-----------------------------------------------|
B|----------------------------------------3------|
G|------2---0h2-----2---0h2-----2---0h2-----2/4--|
D|-----------------------------------------------|
A|0-----0-----0-----0-----0-----------0----------|
E|-----------------------------------------------|


0:39

e|------------------------------------------|
B|--3h5-p0-----------------------3----------|
G|------------2h4-2p0----2p0-2/4---4\2p0----|
D|---------------------------------------2--|
A|--------------------2--2---0--------------|
E|0-0---------0-----------------------------|


0:44


e|-----------------------------------------|
B|--3h5-3p0--------------------------------|
G|-------------2h4-2p0----2p0-2/4---4\2----|
D|-----------------------------------------|
A|---------------------2------0------------|
E|0-0-------0------------------------------|


0:48


e|----------------------------0----------------|
B|------------------------------3/5------------|
G|------2---0h2-----2---0h2----------4\2---0---|
D|---------------------------------------------|
A|0-----0-----0-----0-----0----------0-----0---|
E|---------------------------------------------|

0:52


e|--------------------------------------------|
B|------------------------3-------------------|
G|------2---0h2-----------------2/4---0--2p0--|
D|--------------------------------------------|
A|0-----0-----0-----0-----0-------------------|
E|--------------------------------------------|

0:57


e|------------------------------------|
B|----3h5-p0--------------------------|
G|-------------2h4-p0---2p0---2/4-----|
D|------------------------------------|
A|------------------------------------|
E|------------------------------------|

1:00


e|-------------------------------|
B|--3h5-p0-----------------------|
G|----------2h4-p0----2p0-2------|
D|-------------------------------|
A|------------------2------------|
E|0------------------------------|

1:05

e|-----------------------------------|
B|--------------------3--------------|
G|------4p2p0-----0------4p2p0-------|
D|-------------2----------------2----|
A|0-----0----------------------------|
E|-----------------------------------|

1:10

e|-------------------------------------------|
B|--------------------3----------------------|
G|------4p2p0-----0------4p2p0------0h2--p0--|
D|-------------2----------------2------------|
A|0-----0------0---------0------0------------|
E|-------------------------------------------|

1:14

e|-------------------------------------------|
B|--3h5-3p0-----------------------3----------|
G|-------------2h4-2p0----2p0-2/4---4\2p0----|
D|----------------------------------------2--|
A|-------------------------------------------|
E|0------------------------------------------|

1:18

e|-------------------------------------------|
B|--3h5-3p0-----------------------3----------|
G|-------------2h4-2p0--------2/4-----4------|
D|-------------------------------------------|
A|-------------------------------------------|
E|0------------------------------------------|

1:22


e|-----------------------------3-----------------------------|
B|3h5--------------------------------------------------------|
G|-----------------------------------------------------------|
D|-----------------------------------------------------------|
A|-----------------------------------------------------------|
E|-----0-----0-----0-----0-----0-----0-----0-----0-----0-----|

1:27


e|-----------------3h5----3---------3------|
B|-----------5------------0----5--------5--|
G|--------------------------------------0--|
D|-----------------------------------------|
A|-----------------------------------------|
E|-----0-----0-----0-----------0-----------|

1:30

e|------------------------------------------------------|
B|5-----------------------------3-----------------------|
G|------------------------------0----2/4---0h2--p0------|
D|------------------------0-----------------------------|
A|------------------------0-----------------------------|
E|0-----0-----0-----0-----0----------0-----------0------|

1:35

e|---------------------------------|
B|---------------------------------|
G|--------------------0--h2--------|
D|-----2--------0h2----------------|
A|---------------------------------|
E|0---------0---------0------------|

1:38

e|-------------------------------------------------|
B|------3-----------------3------------------------|
G|------------4p2p0-------------4p2p0-------0------|
D|------------------2-----------------2------------|
A|0-----0-----0-----0-----0-----0-----0------------|
E|-------------------------------------------------|

1:42

e|------------------------0-----0-----0-----------|
B|------3-----3-----3-----3/5---5\3---0-----------|
G|------------------------------------0--2---0----|
D|---------------------------------------------2--|
A|0-----0-----0-----0-----0--------------0--------|
E|------------------------------------------------|

1:47

e|-------------------------------------------|
B|--3h5-3p0-----------------------3----------|
G|-------------2h4-2p0----2p0-2/4---4\2p0----|
D|----------------------------------------2--|
A|-------------------------------------------|
E|0------------------------------------------|

1:51

e|-----------------------------------------|
B|--3h5-3p0-----------------------3--------|
G|-------------2h4-2p0----2p0-2/4-------0--|
D|-----------------------------------------|
A|-----------------------------------------|
E|0----------------------------------------|

1:56

e|-------5-----5-----------------------------------|
B|---------------3----------------3b---------------|
G|4----------------4-4----0--2--------2/4--0-h2p0--|
D|4------------------4-------2---------------------|
A|2------------------2-------0---------------------|
E|-------------------------------------------------|

2:05

e|------------------------------------------|
B|------------------------------------------|
G|-----2p0----------------------------------|
D|---------2----2p0-------------------------|
A|------------------2------2p0--------------|
E|0-----------------------------3b----0-----|
Tap to rate this tab
# A B C D E F G H I J K L M N O P Q R S T U V W X Y Z