Song name
# A B C D E F G H I J K L M N O P Q R S T U V W X Y Z

Black Keys - Little Black Submarines tab

THE BLACK KEYS

Little Black Submarines

Transcribed by Danleary

Key

 b : Bend
 r : Release
 / : Slide into
 \ : Slide out of
 h : Hammer on
 p : Pull off
(-): Ghost note
 ~ : Vibrato
 x : Mute
 U : Up stroke
 D : Down stroke
 T : Fret with thumb
 . : Staccato 

___________________________________________________________

Standard Tuning
___________________________________________________________

A detailed look at the fingerpicked acoustic section. Delta style using only 
index and thumb. The chords are just the cowboy versions of Am, G, D, A, and C.


e|----0---------0-----------------|--------------------------------|
B|----1-------------1-----------1-|----1---------1-------1-------0-|
G|----2-----2-----------2---0h2---|----------2-------2-------2-----|
D|----2-------2-------2-------2---|----2-------2-------2-------2---|
A|0-------0-------0-------0-------|0-------0-------0-------0-------|
E|--------------------------------|--------------------------------|

___________________________________________________________________________


e|--------------------------------|----2---------------------------|
B|----1---------0-----0---------0-|----------3---0-----2---------0-|
G|----------2---------------0-----|----2-------2-------------2-----|
D|----2-------2-------0-------0---|0-------0-----------2-------2---|
A|0-------0-----------------------|----------------0-------0-------|
E|----------------3-------3-------|--------------------------------|



e|--------------------------------|----------------------0---------|
B|----1---------0-----0---------0-|----2---------2-----------2-----|
G|----------2---------------0-----|----------2-------2-----------0-|
D|----2-------2-------0-------0---|----2-------2-------2-------2---|
A|0-------0-----------------------|0-------0-------0-------0-------|
E|----------------3-------3-------|--------------------------------|

___________________________________________________________________________


e|--------------------------------|----2---------------------------|
B|----1---------0-----0---------0-|----------3---0-----2-----------|
G|----------2---------------0-----|----2-------2-------------------|
D|----2-------2-------0-------0---|0-------0-----------2-----------|
A|0-------0-----------------------|----------------0-------0---2---|
E|----------------3-------3-------|--------------------------------|


e|--------------------2-----------|----------------------0---------|
B|----1---------0-----------3---0-|----2---------2-----------2-----|
G|----------0---------2-------2---|----------2-------2-----------0-|
D|----2-------2---0-------0-------|----2-------2-------2-------2---|
A|3-------3-----------------------|0-------0-------0-------0-------|
E|--------------------------------|--------------------------------|


___________________________________________________________________________




e|--------------------------------|----2---------------------------|
B|----1---------0-----0---------0-|----------3---0-----2-----------|
G|----------2---------------0-----|----2-------2-------------------|
D|----2-------2-------0-------0---|0-------0-----------2-----------|
A|0-------0-----------------------|----------------0-------0---2---|
E|----------------3-------3-------|--------------------------------|


e|--------------------2-----------|--------------0-----------------|
B|----1---------0-----------3---0-|----2-------------2-------------|
G|----------0---------2-------2---|----------2-----------2---------|
D|----2-------2---0-------0-------|----2-------2-------2-----------|
A|3-------3-----------------------|0-------0-------0-------0---2---|
E|--------------------------------|--------------------------------|


e|--------------------2-----------|----------------------0---------|
B|----1---------0-----------3---0-|----2---------2-----------2-----|
G|----------0---------2-------2---|----------2-------2-----------2-|
D|----2-------2---0-------0-------|----2-------2-------2-------2---|
A|3-------3-----------------------|0-------0-------0-------0-------|
E|--------------------------------|--------------------------------|


e|--------------------------------|
B|----2---------2-------2---------|
G|----------2-------2-------2---0-|
D|----2-------2-------2-------2---|
A|0-------0-------0-------0-------|
E|--------------------------------|

___________________________________________________________________________



e|--------------------------------|----2---------------------------|
B|----1---------0-----0---------0-|----------3---0-----2-----------|
G|----------2---------------0-----|----2-------2-------------------|
D|----2-------2-------0-------0---|0-------0-----------2-----------|
A|0-------0-----------------------|----------------0-------0---2---|
E|----------------3-------3-------|--------------------------------|


e|--------------------2-----------|--------------0-----------------|
B|----1---------0-----------3---0-|----2-------------2-------------|
G|----------0---------2-------2---|----------2-----------2---------|
D|----2-------2---0-------0-------|----2-------2-------2-----------|
A|3-------3-----------------------|0-------0-------0-------0---2---|
E|--------------------------------|--------------------------------|


e|--------------------2-----------|--------------0-----------------|
B|----1---------0-----------3---0-|----2-------------2-------------|
G|----------0---------2-------2---|----------2-----------2---------|
D|----2-------2---0-------0-------|----2-------2-------2-----------|
A|3-------3-----------------------|0-------0-------0-------0---2---|
E|--------------------------------|--------------------------------|


e|--------------------2-----------|0-------------------------------|
B|----1---------0-----------3---0-|2-------------------------------|
G|----------0---------2-------2---|2-------------------------------|
D|----2-------2---0-------0-------|2-------------------------------|
A|3-------3-----------------------|0-------------------------------|
E|--------------------------------|--------------------------------|
Tap to rate this tab
 
# A B C D E F G H I J K L M N O P Q R S T U V W X Y Z