Song name
# A B C D E F G H I J K L M N O P Q R S T U V W X Y Z

Black Keys - The Moan tab

The Moan (John Peel Sessions)

Key

 b : Bend
 r : Release
 / : Slide into
 \ : Slide out of
 h : Hammer on
 p : Pull off
(-): Ghost note
 ~ : Vibrato
 x : Mute
 u : Up stroke
 d : Down stroke
 T : Fret with thumb
 . : Staccato 


This song is played delta fingerstyle using only the thumb and
index fingers. Thumb and fingerpick may have been used, but I believe 
Dan went bare fingers by this time.

____________________________________________________________________________

Intro


e|3--3-3-3--3-3--3-3-|2--2-2-2--2-2--2-2-|1--1-1-1--1-1--1---|--------0---|
B|3--3-3-3--3-3--3-3-|2--2-2-2--2-2--2-2-|1--1-1-1--1-1--1-0-|--------0---|
G|4--4-4-4--4-4--4-4-|3--3-3-3--3-3--3-3-|2--2-2-2--2-2--2-0-|2b------0---|
D|5--5-5-5--5-5--5-5-|4--4-4-4--4-4--4-4-|3--3-3-3--3-3--3-0-|--------0---|
A|5--5-5-5--5-5--5-5-|4--4-4-4--4-4--4-4-|3--3-3-3--3-3--3-0-|----------2-|
E|3--3-3-3--3-3--3-3-|2--2-2-2--2-2--2-2-|1--1-1-1--1-1--1---|------------|


e|0-------------------0-|0-------------------------|
B|0------------3------0-|0------------------0h2p0--|
G|1---------------2---0-|1--------------0h1--------|
D|2---0---2-----------0-|2---0---2---2-------------|
A|2-----2---------------|2-----2-------------------|
E|0---------0---0---0---|0---------0---0--0---0----|


e|0---------------------|0---------------------|
B|0------------3------0-|0------------3------0-|
G|1---------------2---0-|1---------------2---0-|
D|2---0---2-----------0-|2---0---2-----------0-|
A|2-----2---------------|2-----2---------------|
E|0---------0---0---0---|0---------0---0---0---|

____________________________________________________________________________

4:07

e|------------------|-------------------0-|
B|------------------|-----------3-------0-|
G|------------------|----0----------2---0-|
D|2-2-0---0-2-2---0-|2-2-----2----------0-|
A|------2-------2---|------2--------------|
E|0-0-------0-0-----|0-0-------0--0---0---|
  Poor boy... 

e|--0-----------------------|0-------------------0-|
B|--0-----------------0h2p0-|0------------3------0-|
G|--1-------------0h1-------|1---------------2---0-|
D|2-----0---2---2-----------|2---0---2-----------0-|
A|--------2-----------------|2-----2---------------|
E|----0-------0-----0---0---|0---------0---0---0---|


4:17

e|------------------|-------------------0-|
B|------------------|-----------3-------0-|
G|------------------|----0----------2---0-|
D|2-2-0---2-2-2---0-|2-2-----2----------0-|
A|------2-------2---|------2--------------|
E|0-0-------0-0-----|0-0-------0--0---0---|

Poor boy


e|--0----------------------0-|--0----------------------0-|
B|--0-------------3--------0-|--0-------------3--------0-|
G|--1------------------2---0-|--1------------------2---0-|
D|2-----0---2--------------0-|2-----0---2--------------0-|
A|--------2------------------|--------2------------------|
E|----0-------0-----0----0---|----0-------0-----0----0---|


4:26


e|------------------|-------------------0-|
B|------------------|-----------3-------0-|
G|------------------|----0----------2---0-|
D|2-2-0---2-2-2---0-|2-2-----2----------0-|
A|------2-------2---|------2--------------|
E|0-0-------0-0-----|0-0-------0--0---0---|

 Poor boy


e|--0---------------------------|--0----------------------0-|
B|--0--------------------0h2p0--|--0-------------3--------0-|
G|--1---------------0h1---------|--1------------------2---0-|
D|2-----0---2---2---------------|2-----0---2--------------0-|
A|--------2---------------------|--------2------------------|
E|----0-------0---0---0----0----|----0-------0-----0----0---|

4:36

e|------------------|-------------------0-|
B|------------------|-----------3-------0-|
G|------------------|----0----------2---0-|
D|2-2-0---2-2-2---0-|2-2-----2----------0-|
A|------2-------2---|------2--------------|
E|0-0-------0-0-----|0-0-------0--0---0---|

 Girl do me no wrong...


e|0-------------------0-|0-------------------0-|
B|0------------3------0-|0------------3------0-|
G|1---------------2---0-|1---------------2---0-|
D|2---0---2-----------0-|2---0---2-----------0-|
A|2-----2---------------|2-----2---------------|
E|0-0-------0---0---0---|0-0-------0---0---0---|

4:45


e|0-------------2----------|0-------------------0-|
B|0-------------2----------|0------------3------0-|
G|1------------------------|1---------------2---0-|
D|2---0---0-2---------0----|2---0---2-----------0-|
A|2-----2------------------|2-----2---------------|
E|0-0-------0-0-----0------|0-0-------0---0---0---|

 Somebody callin...

e|0-------------2----------|0-------------------0-|
B|0-------------2----------|0------------3------0-|
G|1------------------------|1---------------2---0-|
D|2---0---0-2---------0----|2---0---2-----------0-|
A|2-----2------------------|2-----2---------------|
E|0-0-------0-0-----0------|0-0-------0---0---0---|


e|0-------------2----------|0-------------------0-|
B|0-------------2----------|0------------3------0-|
G|1------------------------|1---------------2---0-|
D|2---0---0-2---------0----|2---0---2-----------0-|
A|2-----2------------------|2-----2---------------|
E|0-0-------0-0-----0------|0-0-------0---0---0---|

 5:00

e|0-------------------0-|0-------------------0-|
B|0------------3------0-|0------------3------0-|
G|1---------------2---0-|1---------------2---0-|
D|2---0---2-----------0-|2---0---2-----------0-|
A|2-----2---------------|2-----2---------------|
E|0-0-------0---0---0---|0-0-------0---0---0---|

 Keep on callin...

e|0-------------------0-|0-------------------0-|
B|0------------3------0-|0------------3------0-|
G|1---------------2---0-|1---------------2---0-|
D|2---0---2-----------0-|2---0---2-----------0-|
A|2-----2---------------|2-----2---------------|
E|0-0-------0---0---0---|0-0-------0---0---0---|

  Callin on me...

 5:09

____________________________________________________________________________

Bridge

e|3--3-3-3--3-3--3-3-|2--2-2-2--2-2--2-2-|1--1-1-1--1-1--1---|------------|
B|3--3-3-3--3-3--3-3-|2--2-2-2--2-2--2-2-|1--1-1-1--1-1--1-0-|------------|
G|4--4-4-4--4-4--4-4-|3--3-3-3--3-3--3-3-|2--2-2-2--2-2--2-0-|2b==(4)r2---|
D|5--5-5-5--5-5--5-5-|4--4-4-4--4-4--4-4-|3--3-3-3--3-3--3-0-|------------|
A|5--5-5-5--5-5--5-5-|4--4-4-4--4-4--4-4-|3--3-3-3--3-3--3-0-|------------|
E|3--3-3-3--3-3--3-3-|2--2-2-2--2-2--2-2-|1--1-1-1--1-1--1---|------------|


____________________________________________________________________________

Solo

5:17

e|-------------------------|-------------------------|
B|-------------------------|-------------------------|
G|-------------------------|-------------------------|
D|--2---0---2---2p0--------|--2---0---2---2p0--------|
A|--------2---------2p0----|--------2---------2p0----|
E|0-------0---0-----0---3b-|0-------0---0-----0---3b-|


e|-------------------------|--------------0--0---0--|
B|-------------------------|--------------0--0-3-0--|
G|-------------------------|------------------------|
D|--2---0---2---2p0--------|--2---0---2-------------|
A|--------2---------2p0----|--------2---------------|
E|0-------0---0-----0---3b-|0-------0---0-----------|

5:27


e|--------------0--3-0----|-----------------0-3-0--|
B|--------------0------0--|--------------3b-0---0--|
G|------------------------|------------------------|
D|--2---0---2-------------|--2---0---2-------------|
A|--------2---------------|--------2---------------|
E|0-------0---0-----------|0-------0---0-----------|


e|---0-----------0--0---0--|-------------------------|
B|---0-----------0--0-3-0--|-------------------------|
G|-------------------------|-------------------------|
D|------0---2--------------|--2---0---2---2p0--------|
A|--------2----------------|--------2---------2p0----|
E|0-------0---0------------|0-------0---0---------3b-|

 5:37

e|---0------------------------|---0----------0--0---0--|
B|---0-----------3p0----------|---0----------0--0-3-0--|
G|-------------------2p0------|------------------------|
D|------0---2------------2p0--|-----0----2-------------|
A|--------2-------------------|--------2---------------|
E|0-------0---0---------------|0-------0---0-----------|

5:42

e|---0-----------0--0---0--|--0--0----0---0-------|
B|---0-----------0--0-3-0--|--0--0-3b-0---0-3b-0--|
G|-------------------------|-------------------0--|
D|------0---2--------------|-------------------0--|
A|--------2----------------|-------------------0--|
E|0-------0---0------------|0-----------0---------|

____________________________________________________________________________

Bridge

e|3--3-3-3--3-3--3-3-|2--2-2-2--2-2--2-2-|1--1-1-1--1-1--1---|------------|
B|3--3-3-3--3-3--3-3-|2--2-2-2--2-2--2-2-|1--1-1-1--1-1--1-0-|------------|
G|4--4-4-4--4-4--4-4-|3--3-3-3--3-3--3-3-|2--2-2-2--2-2--2-0-|2b==(4)r2p0-|
D|5--5-5-5--5-5--5-5-|4--4-4-4--4-4--4-4-|3--3-3-3--3-3--3-0-|------------|
A|5--5-5-5--5-5--5-5-|4--4-4-4--4-4--4-4-|3--3-3-3--3-3--3-0-|------------|
E|3--3-3-3--3-3--3-3-|2--2-2-2--2-2--2-2-|1--1-1-1--1-1--1---|------------|

____________________________________________________________________________

5:56

e|0-------------------0-|--0-----------------0-|
B|0------------3------0-|--0----------3------0-|
G|1---------------2---0-|--1-------------2---0-|
D|2---0---2-----------0-|--2-0---2-----------0-|
A|2-----2---------------|------2---------------|
E|0---------0---0---0---|0---------0---0---0---|


e|--0-----------------0-|--0-----------------0-|
B|--0----------3------0-|--0----------3------0-|
G|--1-------------2---0-|--1-------------2---0-|
D|--2-0---2-----------0-|--2-0---2-----------0-|
A|------2---------------|------2---------------|
E|0---------0---0---0---|0---------0---0---0---|


________________________________________________________________

6:03

e|----0---------2-----0----|----0---------------0-|
B|----0---------2-----0----|----0--------3------0-|
G|-------------------------|----------------2---0-|
D|2-2-----0-2--------------|2-2-----2-----------0-|
A|------2------------------|------2---------------|
E|0-0-------0-0-----0------|0-0-------0---0---0---|

Somebody...

e|----0---------2-----0----|----0---------------0-|
B|----0---------2-----0----|----0--------3------0-|
G|-------------------------|----------------2---0-|
D|2-2-----0-2--------------|2-2-----2-----------0-|
A|------2------------------|------2---------------|
E|0-0-------0-0-----0------|0-0-------0---0---0---|


e|----0---------2-----0----|----0---------------0-|
B|----0---------2-----0----|----0--------3------0-|
G|-------------------------|----------------2---0-|
D|2-2-----0-2--------------|2-2-----2-----------0-|
A|------2------------------|------2---------------|
E|0-0-------0-0-----0------|0-0-------0---0---0---|

____________________________________________________

6:17

e|-----0--------2-2---2-0---|----0-----------------0-|
B|-----0--------2-2---2-0---|----0---------3-------0-|
G|--------------------------|-----------------2----0-|
D|2-2-------2---------------|2-2-----2-------------0-|
A|--------2-----------------|------2-----------------|
E|0-0-----0---0-------------|0-0-------0----0---0----|

Keep on...

e|----0---------2-----0----|----0-----------------|
B|----0---------2-----0----|----0--------3-----0--|
G|-------------------------|----------------2--0--|
D|2-2-----0-2--------------|2-2-----2----------0--|
A|------2------------------|------2------------0--|
E|0-0-------0-0-----0------|0-0-------0---0-------|


__________________________________________________________

Outro

e|3--3-3-3--3-3--3-3-|2--2-2-2--2-2--2-2-|1-1-1-1-1-1-1---|------------|
B|3--3-3-3--3-3--3-3-|2--2-2-2--2-2--2-2-|1-1-1-1-1-1-1-0-|------------|
G|4--4-4-4--4-4--4-4-|3--3-3-3--3-3--3-3-|2-2-2-2-2-2-2-0-|2b==(4)r2---|
D|5--5-5-5--5-5--5-5-|4--4-4-4--4-4--4-4-|3-3-3-3-3-3-3-0-|------------|
A|5--5-5-5--5-5--5-5-|4--4-4-4--4-4--4-4-|3-3-3-3-3-3-3-0-|------------|
E|3--3-3-3--3-3--3-3-|2--2-2-2--2-2--2-2-|1-1-1-1-1-1-1---|------------|


e|0---------------------|
B|0---------------------|
G|1---------------------|
D|2---------------------|
A|2---------------------|
E|0---------------------|
Tap to rate this tab
 
# A B C D E F G H I J K L M N O P Q R S T U V W X Y Z