Song name
# A B C D E F G H I J K L M N O P Q R S T U V W X Y Z

Black Keys - The Baddest Man Alive tab

-------------------------------------------------------------------------------
                              The Black Keys (with RZA) - The Baddest Man Alive 
-------------------------------------------------------------------------------
Album : The Man With The Iron Fists (2012)
Tempo : 84
E-mail: gwendal.mollo@orange.fr
Tabbed by: newg


Just two chords during the song : Am and Dm.
Check my Guitar pro 6 version.

Intro :
    Am       Am      Dm      Dm      Am
E |--17---|--17---|--20---|--20---|-------|
B |-------|-------|-------|-------|--22---|
G |-------|-------|-------|-------|-------|
D |-------|-------|-------|-------|-------|
A |-------|-------|-------|-------|-------|
E |-------|-------|-------|-------|-------|

Guitar 1 :
Intro/Verse/Chorus/Outro
                 Am                  
E |--------------5-----------------------5-------------|
B |--------------5-----------------------5-------------|
G |--------------5-----------------------5-------------|
D |--------------7-----------------------7-------------|
A |----------------------------------------------------|
E |----------------------------------------------------|  x5
 
                 Dm
E |--------------5-----------------------5-------------|
B |--------------6-----------------------6-------------|
G |--------------7-----------------------7-------------|
D |--------------7-----------------------7-------------|
A |--------------5-----------------------5-------------|
E |----------------------------------------------------| x2

Guitar 2 :
Play on octave up.
                Am
E |--------------12----------------------12------------|
B |--------------13----------------------13------------|
G |--------------14----------------------14------------|
D |----------------------------------------------------|
A |----------------------------------------------------|
E |----------------------------------------------------| x5

             Dm
--------------17----------------------17------------|
--------------18----------------------18------------|
--------------19----------------------19------------|
----------------------------------------------------|
----------------------------------------------------|
----------------------------------------------------| x2

Guitar 3 :
Palm mute + small disto.
    
     Am
E |--------------------------0-------------------------|
B |--------------------1M----------1M----3h-1----------|
G |--2M----------2M----------------------------2h-0----|
D |----------------------------------------------------|
A |----------------------------------------------------|
E |----------------------------------------------------| x5

  Am
--------------0-------------|
-----------1--------3--1----|
--2M-2M-2M-------2----------|
----------------------------|
----------------------------|
----------------------------| variation


    D5
E |----------------------------------------------------|
B |--3-----3-----3-----3-----3-----3-----3-----3-------|
G |--2-----2-----2-----2-----2-----2-----2-----2-------|
D |--0-----0-----0-----0-----0-----0-----0-----0-------|
A |----------------------------------------------------|
E |----------------------------------------------------|

 Dm
--1-----1-----1-----1-----1-----1-----1-----1-------|
--3-----3-----3-----3-----3-----3-----3-----3-------|
--2-----2-----2-----2-----2-----2-----2-----2-------|
--0-----0-----0-----0-----0-----0-----0-----0-------|
----------------------------------------------------|
----------------------------------------------------| x1

Or :
     Dm
E |----------------------------------------------------|
B |----------------------------------------------------|
G |----------------------------------------------------|
D |--7M----7M----7M----7M----7M----7M----7M----7M------|
A |--5M----5M----5M----5M----5M----5M----5M----5M------|
E |----------------------------------------------------|


--------------------------------------------5-------|
--------------------------------------5-----6-------|
--------------------7-----7-----7-----7-----7-------|
--7M----7M----7M----7M----7M----7M----7M----7M------|
--5M----5M----5M----5M----5M----5M----5M----5M------|
----------------------------------------------------|


Intro
Verse 1
Chorus 1
Verse 2
Verse [RZA]
Chorus 2
Outro 
Tap to rate this tab
# A B C D E F G H I J K L M N O P Q R S T U V W X Y Z