Song name
# A B C D E F G H I J K L M N O P Q R S T U V W X Y Z

Black Keys - Im Not The One tab

D minor Barre Chord

e--5--  ---------------------------------------------------------------|
B--5--  --------------6-------------6---6h8---6h8p6--------------6-----|
G--7--  ----7---5h7-------7---5h7----------------------7---5h7-------7-|
D--7--  ---------------------------------------------------------------|
A--5--  ---------------------------------------------------------------|
E--X--  ---------------------------------------------------------------|

e----------5h8p5-------------------------------------------------------|
B------------------6h8p6-----------6----------8p5-----6b8--------------|
G---------------------------5h7p5------7-----X--------------7----------|
D-------------------------------------------X--------------------------|
A----------------------------------------------------------------------|
E----------------------------------------------------------------------|
Tap to rate this tab
# A B C D E F G H I J K L M N O P Q R S T U V W X Y Z