Song name
# A B C D E F G H I J K L M N O P Q R S T U V W X Y Z

Black Keys - Money Maker tab

-------------------------------------------------------------------------------
			    Money Maker-The Black Keys
-------------------------------------------------------------------------------
Tabbed by:SolidusArmor


Tuning:EADGBe

I think dan auerbach used a talkbox for the solo!     


                    Intro
e|-3--3---1--1----------------------3--3--------------|
B|-3--3---1--1---5--5---3-----------3--3---5-5---3----|
G|-4--4---2--2---5--5---3-----------4--4---5-5---3----|
D|-5--5---3--3---5--5---3-----------5--5---5-5---3----|
A|-5--5---3--3---3--3---1-----------5--5---3-3---1----|
E|-3--3---1--1----------------------3--3--------------|


                                                     X10
e|-----------------------------------|----------------------------------|
B|-----------------------------------|----------------------------------|
G|-----------------------------------|----------------------------------|
D|-----------------------------------|----------------------------------|
A|-----------------------------------|-------1--3----------1--3--1------|
E|--3b--3b--3b--3b--3b3b3b3b3b3b-----|----3---------1--3----------------|



e|-3--3---1--1----------------------3--3--------------|
B|-3--3---1--1---5--5---3-----------3--3---5-5---3----|
G|-4--4---2--2---5--5---3-----------4--4---5-5---3----|X4
D|-5--5---3--3---5--5---3-----------5--5---5-5---3----|
A|-5--5---3--3---3--3---1-----------5--5---3-3---1----|
E|-3--3---1--1----------------------3--3--------------|



e|-----------------------------------|
B|-----------------------------------|
G|-----------------------------------|
D|-----------------------------------|X10
A|-----1--3----------1--3--1---------|
E|--3---------1--3-------------------|






e|-3--3---1--1----------------------3--3--------------|
B|-3--3---1--1---5--5---3-----------3--3---5-5---3----|
G|-4--4---2--2---5--5---3-----------4--4---5-5---3----|X4
D|-5--5---3--3---5--5---3-----------5--5---5-5---3----|
A|-5--5---3--3---3--3---1-----------5--5---3-3---1----|
E|-3--3---1--1----------------------3--3--------------|


e|-----------------------------------|
B|-----------------------------------|
G|-----------------------------------|
D|-----------------------------------|
A|-----------------------------------|
E|--3b--3b--3b--3b--3b3b3b3b3b3b-----|




                                   Solo
e|---------------------------------------------------------------------------|
B|--------------------------------------------8--6-----6--8---8b---6---------|
G|-------3---5pb------3-----3----------5b-----------7------------------------|
D|----5------------5-----5-----5----5----------------------------------------|
A|---------------------------------------------------------------------------|
E|---------------------------------------------------------------------------|

-----------------|
-----------------|
--7-7--5--3------|
-------------5---|
-----------------|
-----------------|



e|-3--3---1--1----------------------3--3--------------|
B|-3--3---1--1---5--5---3-----------3--3---5-5---3----|
G|-4--4---2--2---5--5---3-----------4--4---5-5---3----|X4
D|-5--5---3--3---5--5---3-----------5--5---5-5---3----|
A|-5--5---3--3---3--3---1-----------5--5---3-3---1----|
E|-3--3---1--1----------------------3--3--------------|


e|-----------------------------------|
B|-----------------------------------|
G|-----------------------------------|
D|-----------------------------------|
A|-----------------------------------|
E|--3b--3b--3b--3b--3b3b3b3b3b3b-----|

************************************

| /   slide up
| \   slide down
| h   hammer-on
| p   pull-off
| ~   vibrato
| +   harmonic
| x   Mute note
| b   Bend
| pb  Pre-bend
| br  Bend release
| pbr Pre-bend release
| brb Bend release bend

************************************
Tap to rate this tab
# A B C D E F G H I J K L M N O P Q R S T U V W X Y Z