Song name
# A B C D E F G H I J K L M N O P Q R S T U V W X Y Z

Black Keys - Set You Free tab

-------------------------------------------------------------------------------
                          SET YOU FREE - The Black Keys
-------------------------------------------------------------------------------
Tabbed by: Whip It
Email: second-heartbeat@live.com

Tuning: Standard (EADGBE)

e|-------------------------------/5-5--------------------------------/5-5----|
B|-------------------------------/5-5----------6b7r6---4-------------/5-5----|
G|---5-5-------3h5--2----2-2-----/5-5----5-5---------------2-2-------/5-5----|
D|---5-5---3h5-----------2-2-------------5-5---------------2-2---------------|
A|---3-3-----------------0-0-------------3-3---------------0-0---------------|
E|---------------------------------------------------------------------------|

e|--------------8/5--------------/5-5--------------------------------/5-5----|
B|---------6h8--8/5--------------/5-5--------------------------------/5-5----|
G|---5-5-----------------2-2-----/5-5----5-5-------3h5--2--2-2-------/5-5----|
D|---5-5-----------------2-2-------------5-5---3h5---------2-2---------------|
A|---3-3-----------------0-0-------------3-3---------------0-0---------------|
E|---------------------------------------------------------------------------|

e|---------------------------------------------------------------------------|
B|---------------------------------------------------------------------------|
G|---5-5---------------------------------2-2---------------------------------|
D|---5-5---------------------------------2-2---------------------------------|
A|---3-3---------------------------------0-0---------------------------------|
E|---------------------------------------------------------------------------|
          You hold on                         'til all love is gone

e|---------------------------------------------------------------------------|
B|---------------------------------------------------------------------------|
G|---5-5---------------------------------2-2---------------------------------|
D|---5-5---------------------------------2-2---------------------------------|
A|---3-3---------------------------------0-0---------------------------------|
E|---------------------------------------------------------------------------|
          Run a mile                           just to see him smile

e|---------------------------------------------------------------------------|
B|---------------------------------------------------------------------------|
G|---5-5---------------------------------2-2---------------------------------|
D|---5-5---------------------------------2-2---------------------------------|
A|---3-3---------------------------------0-0---------------------------------|
E|---------------------------------------------------------------------------|
          But you don't know                   he's door to door

e|---------------------------------------------------------------------------|
B|---------------------------------------------------------------------------|
G|---5-5---------------------------------2-2---------------------------------|
D|---5-5---------------------------------2-2---------------------------------|
A|---3-3---------------------------------0-0---------------------------------|
E|---------------------------------------------------------------------------|
          Playing you                          for the fool

e|---------------------------------------------------------------------------|
B|---------------------------------------------------------------------------|
G|----------4-----------6-----------2----------------------------------------|
D|----------5-----------7-----------3----------5-----------------------------|
A|----------5-----------7-----------3----------5-----------------------------|
E|---0h3--3-3----0h5--5-5----0h1--1-1----0h3-3-3-----------------------------|
                                              Let him go

e|---------------------------------------------------------------------------|
B|---------------------------------------------------------------------------|
G|----------4-----------6-----------2----------------------------------------|
D|----------5-----------7-----------3----------5-----------------------------|
A|----------5-----------7-----------3----------5-----------------------------|
E|---0h3--3-3----0h5--5-5----0h1--1-1----0h3-3-3-----------------------------|
                                              walk out the door

e|---------------------------------------------------------------------------|
B|---------------------------------------------------------------------------|
G|----------4-----------6-----------2----------------------------------------|
D|----------5-----------7-----------3----------5-----------------------------|
A|----------5-----------7-----------3----------5-----------------------------|
E|---0h3--3-3----0h5--5-5----0h1--1-1----0h3-3-3-----------------------------|
                                              And come to me

e|---------------------------------------------------------------------------|
B|---------------------------------------------------------------------------|
G|----------4-----------6-----------2----------------------------------------|
D|----------5-----------7-----------3----------5-----------------------------|
A|----------5-----------7-----------3----------5-----------------------------|
E|---0h3--3-3----0h5--5-5----0h1--1-1----0h3-3-3--3--------------------------|
                                              I'm gonna set you free..

e|-------------------------------/5-5--------------------------------/5-5----|
B|-------------------------------/5-5----------6b7r6---4-------------/5-5----|
G|---5-5-------3h5--2----2-2-----/5-5----5-5---------------2-2-------/5-5----|
D|---5-5---3h5-----------2-2-------------5-5---------------2-2---------------|
A|---3-3-----------------0-0-------------3-3---------------0-0---------------|
E|---------------------------------------------------------------------------|

e|---------------------------------------------------------------------------|
B|---------------------------------------------------------------------------|
G|---5-5---------------------------------2-2---------------------------------|
D|---5-5---------------------------------2-2---------------------------------|
A|---3-3---------------------------------0-0---------------------------------|
E|---------------------------------------------------------------------------|
          And now you know                     there you go

e|---------------------------------------------------------------------------|
B|---------------------------------------------------------------------------|
G|---5-5---------------------------------2-2---------------------------------|
D|---5-5---------------------------------2-2---------------------------------|
A|---3-3---------------------------------0-0---------------------------------|
E|---------------------------------------------------------------------------|
          Back to him                          he's gonna do you in

e|---------------------------------------------------------------------------|
B|---------------------------------------------------------------------------|
G|---5-5---------------------------------2-2---------------------------------|
D|---5-5---------------------------------2-2---------------------------------|
A|---3-3---------------------------------0-0---------------------------------|
E|---------------------------------------------------------------------------|
          Tear you down                        and run you round

e|---------------------------------------------------------------------------|
B|---------------------------------------------------------------------------|
G|---5-5---------------------------------2-2---------------------------------|
D|---5-5---------------------------------2-2---------------------------------|
A|---3-3---------------------------------0-0---------------------------------|
E|---------------------------------------------------------------------------|
          Treat you wrong                      and then he's gone

e|---------------------------------------------------------------------------|
B|---------------------------------------------------------------------------|
G|----------4-----------6-----------2----------------------------------------|
D|----------5-----------7-----------3----------5-----------------------------|
A|----------5-----------7-----------3----------5-----------------------------|
E|---0h3--3-3----0h5--5-5----0h1--1-1----0h3-3-3-----------------------------|
                                              Let him go

e|---------------------------------------------------------------------------|
B|---------------------------------------------------------------------------|
G|----------4-----------6-----------2----------------------------------------|
D|----------5-----------7-----------3----------5-----------------------------|
A|----------5-----------7-----------3----------5-----------------------------|
E|---0h3--3-3----0h5--5-5----0h1--1-1----0h3-3-3-----------------------------|
                                              walk out the door

e|---------------------------------------------------------------------------|
B|---------------------------------------------------------------------------|
G|----------4-----------6-----------2----------------------------------------|
D|----------5-----------7-----------3----------5-----------------------------|
A|----------5-----------7-----------3----------5-----------------------------|
E|---0h3--3-3----0h5--5-5----0h1--1-1----0h3-3-3-----------------------------|
                                              And come to me

e|---------------------------------------------------------------------------|
B|---------------------------------------------------------------------------|
G|----------4-----------6-----------2----------------------------------------|
D|----------5-----------7-----------3----------5-----------------------------|
A|----------5-----------7-----------3----------5-----------------------------|
E|---0h3--3-3----0h5--5-5----0h1--1-1----0h3-3-3--3--------------------------|
                                              I'm gonna set you free..

e|---------------------------------------------------------------------------|
B|---------------------------------------------------------------------------|
G|---5-5---------------------------------2-2---------------------------------|
D|---5-5---------------------------------2-2---------------------------------|
A|---3-3---------------------------------0-0---------------------------------|
E|---------------------------------------------------------------------------|
        

e|---------------------------------------------------------------------------|
B|---------------------------------------------------------------------------|
G|---5-5---------------------------------2-2---------------------------------|
D|---5-5---------------------------------2-2---------------------------------|
A|---3-3---------------------------------0-0---------------------------------|
E|---------------------------------------------------------------------------|
        

e|---------------------------------------------------------------------------|
B|---------------------------------------------------------------------------|
G|---5-5---------------------------------2-2---------------------------------|
D|---5-5---------------------------------2-2---------------------------------|
A|---3-3---------------------------------0-0---------------------------------|
E|---------------------------------------------------------------------------|
        

e|---------------------------------------------------------------------------|
B|---------------------------------------------------------------------------|
G|---5-5---------------------------------2-2---------------------------------|
D|---5-5---------------------------------2-2---------------------------------|
A|---3-3---------------------------------0-0---------------------------------|
E|---------------------------------------------------------------------------|
        

e|---------------------------------------------------------------------------|
B|---------------------------------------------------------------------------|
G|---5-5-5-------------------------------2-2-2-------------------------------|
D|---5-5-5-------------------------------2-2-2-------------------------------|
A|---3-3-3-------------------------------0-0-0-------------------------------|
E|---------------------------------------------------------------------------|
          You hold on                         'til all love is gone

e|---------------------------------------------------------------------------|
B|---------------------------------------------------------------------------|
G|---5-5-5-------------------------------2-2-2-------------------------------|
D|---5-5-5-------------------------------2-2-2-------------------------------|
A|---3-3-3-------------------------------0-0-0-------------------------------|
E|---------------------------------------------------------------------------|
          Run a mile                           just to see him smile

e|---------------------------------------------------------------------------|
B|---------------------------------------------------------------------------|
G|---5-5-5-------------------------------2-2-2-------------------------------|
D|---5-5-5-------------------------------2-2-2-------------------------------|
A|---3-3-3-------------------------------0-0-0-------------------------------|
E|---------------------------------------------------------------------------|
          But you don't know                   he's door to door

e|---------------------------------------------------------------------------|
B|---------------------------------------------------------------------------|
G|---5-5-5-------------------------------2-2-2-------------------------------|
D|---5-5-5-------------------------------2-2-2-------------------------------|
A|---3-3-3-------------------------------0-0-0-------------------------------|
E|---------------------------------------------------------------------------|
          Playing you                          for the fool

e|---------------------------------------------------------------------------|
B|---------------------------------------------------------------------------|
G|---------------------------------------------------------------------------|
D|---------------------------------------------------------------------------|
A|---------------------------------------------------------------------------|
E|---3-3-3--5-5-5--1-1-1--3-3-3-3-3------------------------------------------|
                          Let him go                     

e|---------------------------------------------------------------------------|
B|---------------------------------------------------------------------------|
G|---------------------------------------------------------------------------|
D|---------------------------------------------------------------------------|
A|---------------------------------------------------------------------------|
E|---0h3-3-3--0h5-5-5--0h1-1-1--oh3-3-3--------------------------------------|
                                 Walk out the door

e|---------------------------------------------------------------------------|
B|---------------------------------------------------------------------------|
G|----------4-----------6-----------2----------4-----------------------------|
D|----------5-----------7-----------3----------5-----------------------------|
A|----------5-----------7-----------3----------5-----------------------------|
E|---0h3--3-3----0h5--5-5----0h1--1-1----0h3-3-3-----------------------------|
                                   And come to me

e|---------------------------------------------------------------------------|
B|---------------------------------------------------------------------------|
G|---------------------------------------------------------------------------|
D|---5-5-5-5-7-7-7-7-3-3-3-3-5-5-5-5-----------------------------------------|
A|---5-5-5-5-7-7-7-7-3-3-3-3-5-5-5-5-----------------------------------------|
E|---3-3-3-3-5-5-5-5-1-1-1-1-3-3-3-3-----------------------------------------|
                      I'm gonna set you

e|---------------------------------------------------------------------------|
B|---------------------------------------------------------------------------|
G|----5---5---5---5-------------------5---5---5---5--------------------------|
D|----5---5---5---5---7---7---7---7---5---5---5---5---7---7---7---7----------|
A|----3---3---3---3---7---7---7---7---3---3---3---3---7---7---7---7----------|
E|--------------------5---5---5---5-------------------5---5---5---5----------|
     free                   I'll set you free           I'll set you

e|---------------------------------------------------------------------------|
B|---------------------------------------------------------------------------|
G|----5---5---5---5-------------------5---5---5---5--------------------------|
D|----5---5---5---5---7---7---7---7---5---5---5---5---7---7---7---7----------|
A|----3---3---3---3---7---7---7---7---3---3---3---3---7---7---7---7----------|
E|--------------------5---5---5---5-------------------5---5---5---5----------|
     free              I'll set you free  I'll set you free I'll set you

e|---------------------------------------------------------------------------|
B|---------------------------------------------------------------------------|
G|----5555555555555555-------------------------------------------------------|
D|----55555555555555557777777777777----------9/0-----------------------------|
A|----33333333333333337777777777777----------9/0-----------------------------|
E|--------------------5555555555555----------7/0-----------------------------|
     free!

===============================================================================

I haven't tabbed the actual solo (if you'd like it I could probably do it for
you, but just have never tried to figure it out and so didn't tab it), but I
have tabbed a solo that you can play still as a two-piece, as in no over-dubs.
It's not very good, but when you have to keep the background going it'll do.

e|-------------------------------/5-5--------------------------------/5-5----|
B|--------------4b---------------/5-5----------6b7r6-4-6-4-----------/5-5----|
G|---5-5-----3h5--2------2-2-----/5-5----5-5---6b7r6-------2-2-------/5-5----|
D|---5-5--3h5------------2-2-------------5-5---------------2-2---------------|
A|---3-3-----------------0-0-------------3-3---------------0-0---------------|
E|---------------------------------------------------------------------------|

e|--------------8/10/5-----------/5-5--------------------------------/5-5----|
B|---------6h8--8/10/5-----------/5-5----------------4b--------------/5-5----|
G|---5-5-----------------2-2-----/5-5----5-5------3h5---2--2-2-------/5-5----|
D|---5-5-----------------2-2-------------5-5---3h5---------2-2---------------|
A|---3-3-----------------0-0-------------3-3---------------0-0---------------|
E|---------------------------------------------------------------------------|



| /  slide up
| \  slide down
| h  hammer-on
| p  pull-off
| ~  vibrato
| +  harmonic
| x  Mute note


It's not in perfect timing and stuff, especially after the solo - you'll have 
to listen to the song if you want to get it right. If you have any problems 
or want the actual solo just give me a buzz and I'll help you out.
===============================================================================
Tap to rate this tab
# A B C D E F G H I J K L M N O P Q R S T U V W X Y Z