Song name
# A B C D E F G H I J K L M N O P Q R S T U V W X Y Z

Black Keys - Thickfreakness tab

----------------------------------------------------------------------------
                       THICKFREAKNESS - The Black Keys
----------------------------------------------------------------------------
Tabbed by: wrong_tabs_suck (a.k.a The Man)
Email: toastmuffin13190@hotmail.com

Tuning: Standard (E-A-D-G-B-e)

Intro:

feedback
e-------|
B-------|
G-------|
D-------|
A-12\-/5
E-------

e-----------------------------|
B-----------------------------|
G-----------------------------|
D-5h7-5-----------------------|
A-------7\5-3-5-5h3-----------|
E-------------------5-3-5-0-0-|

e-------------------------------|
B-------------------------------|
G-------------------------------|
D-5h7-5-------------------------|
A-------7\5-3-5-3h5-3h5-5p3-----|
E---------------------------5-3-|

e-----------------------------|
B-----------------------------|
G-----------------------------|
D-5h7-5-----------------------|
A-------7\5-3-5-5h3-----------|
E-------------------5-3-5-0-0-|

e-------------------|
B-------------------|
G-------------------|
D-5h7-5-----------5-|
A-------7\5-3-5/7---|
E-------------------|

Verse:

e-----------------------|
B-----------------------|
G---2----2----2---------|
D---2----2----2---------|
A-0----0----0---0-------|
E-----------------0-3-4-|

e--------------------------|
B--------------------------|
G---2----2----2--2p0-------|
D---2----2----2------2p0---|
A-0----0----0------------3-|
E--------------------------|

e-----------------------|
B-----------------------|
G---2----2----2---------|
D---2----2----2---------|
A-0----0----0---0-------|
E-----------------0-3-4-|

e---------------|
B---------------|
G---2----2----2-|
D---2----2----2-|
A-0----0----0---|
E---------------|

e---------------------------------3p0-------|
B---1-1h3-1---1h3p1-----------1h3-----3-1---|
G-2---------2-----------------------------2-|
D-----------------------0-------------------|
A-------------------3-3---------------------|
E-------------------------------------------|

  here i am,        and i...        my darlin'

e-----------------------|
B-----------------------|
G---2----2----2---------|
D---2----2----2---------|
A-0----0----0---0-------|
E-----------------0-3-4-|

e--------------------------|
B--------------------------|
G---2----2----2--2p0-------|
D---2----2----2------2p0---|
A-0----0----0------------3-|
E--------------------------|

e-----------------------|
B-----------------------|
G---2----2----2---------|
D---2----2----2---------|
A-0----0----0---0-------|
E-----------------0-3-4-|

e---------------|
B---------------|
G---2----2----2-|
D---2----2----2-|
A-0----0----0---|
E---------------|

e---------------------------------3p0-------|
B---1-1h3-1---1h3p1-----------1h3-----3-1---|
G-2---------2-----------------------------2-|
D-----------------------0-------------------|
A-------------------3-3---------------------|
E-------------------------------------------|

and i'll care for you,    and that's all i want to do

Chorus:

e-----------------------|
B-----------------------|
G---2----2----2---------|
D---2----2----2---------|
A-0----0----0---0-------|
E-----------------0-3-4-|

e--------------------------|
B--------------------------|
G---2----2----2--2p0-------|
D---2----2----2------2p0---|
A-0----0----0------------3-|
E--------------------------|

e-----------------------|
B-----------------------|
G---2----2----2---------|
D---2----2----2---------|
A-0----0----0---0-------|
E-----------------0-3-4-|

e---------------------|
B---------------------|
G---2----2----2-------|
D---2----2----2-------|
A-0----0----0---0-----|
E-----------------3-0-|

e----------------------|
B-----------3b-3r-h1---|
G-9-7---7-5----------2-|
D----------------------|
A----------------------|
E-----3----------------|

hold me, love me, in your heart.

e-----------------------|
B-----------------------|
G---2----2----2---------|
D---2----2----2---------|
A-0----0----0---0-------|
E-----------------0-3-4-|

e---------------------|
B---------------------|
G---2----2----2-------|
D---2----2----2-------|
A-0----0----0---0-3/5-|
E---------------------|

Lead Riff (same as intro):

e-----------------------------|
B-----------------------------|
G-----------------------------|
D-5h7-5-----------------------|
A-------7\5-3-5-5h3-----------|
E-------------------5-3-5-0-0-|

e-------------------------------|
B-------------------------------|
G-------------------------------|
D-5h7-5-------------------------|
A-------7\5-3-5-3h5-3h5-5p3-----|
E---------------------------5-3-|

e-----------------------------|
B-----------------------------|
G-----------------------------|
D-5h7-5-----------------------|
A-------7\5-3-5-5h3-----------|
E-------------------5-3-5-0-0-|

e-------------------|
B-------------------|
G-------------------|
D-5h7-5-----------5-|
A-------7\5-3-5/7---|
E-------------------|

Solo:

Guitar 1:
(x4)
e-------------------------------------------------------|
B-------------------------------------------------------|
G-------------------------------------------------------|
D-7-X-X-X-X-7-5-X-X-X-X-5-7-X-X-X-X-X-X-X-X-X-X-X-X-X-X-|
A-7-X-X-X-X-7-5-X-X-X-X-5-7-X-X-X-X-X-X-X-X-X-X-X-X-X-X-|
E-5-X-X-X-X-5-3-X-X-X-X-3-5-X-X-X-X-X-X-X-X-X-X-X-X-X-X-|

Guitar 2 (A Minor Pentatonic):

e-------------5-----------------|
B---------------8-5-5h8p5-------|
G---------7Br-------------7-5---|
D-(5)-5h7Br---------------------|
A-------------------------------|
E-------------------------------|

e-----------------------------|
B-----------------------------|
G---------7Br-p5---7Br-p5-----|
D-5-7-5h7--------7--------7-5-|
A-----------------------------|
E-----------------------------|

e--------------------------------------X-|
B-----3/5-8~---------------------------8-|
G--------------5-----------------------X-|
D-5h7--------7---7~---5-7~-7p5---------7-|
A-------------------7----------7p5-----7-|
E----------------------------------8-5-5-|

Verse:

e---------------------------------3p0-------|
B---1-1h3-1---1h3p1-----------1h3-----3-1---|
G-2---------2-----------------------------2-|
D-----------------------0-------------------|
A-------------------3-3---------------------|
E-------------------------------------------|

and i'll hold you near, and i'll whisper in your ear

e-----------------------|
B-----------------------|
G---2----2----2---------|
D---2----2----2---------|
A-0----0----0---0-------|
E-----------------0-3-4-|

e--------------------------|
B--------------------------|
G---2----2----2--2p0-------|
D---2----2----2------2p0---|
A-0----0----0------------3-|
E--------------------------|

e-----------------------|
B-----------------------|
G---2----2----2---------|
D---2----2----2---------|
A-0----0----0---0-------|
E-----------------0-3-4-|

e---------------|
B---------------|
G---2----2----2-|
D---2----2----2-|
A-0----0----0---|
E---------------|

e-----------------------------3p0-------|
B---1-1h3-1---------------1h3-----3-1---|
G-2---------2-1h3p1-------------------2-|
D-----------------------0---------------|
A-------------------3-3-----------------|
E---------------------------------------|

i'll take your hand, and i'll make you understand

Chorus:

e-----------------------|
B-----------------------|
G---2----2----2---------|
D---2----2----2---------|
A-0----0----0---0-------|
E-----------------0-3-4-|

e--------------------------|
B--------------------------|
G---2----2----2--2p0-------|
D---2----2----2------2p0---|
A-0----0----0------------3-|
E--------------------------|

e-----------------------|
B-----------------------|
G---2----2----2---------|
D---2----2----2---------|
A-0----0----0---0-------|
E-----------------0-3-4-|

e---------------|
B---------------|
G---2----2----2-|
D---2----2----2-|
A-0----0----0---|
E---------------|

e----------------------|
B-----------3b-3r-h1---|
G-9-7---7-5----------2-|
D----------------------|
A----------------------|
E-----3----------------|

hold me, love me in your heart.

Lead Riff:

e-----------------------------|
B-----------------------------|
G-----------------------------|
D-5h7-5-----------------------|
A-------7\5-3-5-5h3-----------|
E-------------------5-3-5-0-0-|

e-------------------------------|
B-------------------------------|
G-------------------------------|
D-5h7-5-------------------------|
A-------7\5-3-5-3h5-3h5-5p3-----|
E---------------------------5-3-|

e-----------------------------|
B-----------------------------|
G-----------------------------|
D-5h7-5-----------------------|
A-------7\5-3-5-5h3-----------|
E-------------------5-3-5-0-0-|

e-------------------------------|
B-------------------------------|
G-------------------------------|
D-5h7-5-------------------------|
A-------7\5-3-5-3h5-3h5-5p3-----|
E---------------------------5-3-|

e-----------------------------|
B-----------------------------|
G-----------------------------|
D-5h7-5-----------------------|
A-------7\5-3-5-5h3-----------|
E-------------------5-3-5-0-0-|

e-------------------------------|
B-------------------------------|
G-------------------------------|
D-5h7-5-------------------------|
A-------7\5-3-5-3h5-3h5-5p3-----|
E---------------------------5-3-|

e-----------------------------|
B-----------------------------|
G-----------------------------|
D-5h7-5-----------------------|
A-------7\5-3-5-5h3-----------|
E-------------------5-3-5-0-0-|

e-----------------------X-----------X-|
B-----------------------5-----------5-|
G-----------------------6-----------6-|
D-5h7-5-----------------7-----------7-|
A-------7\5-3-5-7-5-3---7-----------7-|
E---------------------5-5-----------5-|

| /  slide up
| \  slide down
| h  hammer-on
| p  pull-off
| ~  vibrato
| +  harmonic
| x  Mute note
Tap to rate this tab
 
# A B C D E F G H I J K L M N O P Q R S T U V W X Y Z