Song name
# A B C D E F G H I J K L M N O P Q R S T U V W X Y Z

Black Keys - Stack Shot Billy tab

The Black Keys
"Stack Shot Billy"

Nice slide tunning of DBDGBd for this song.

Main Riff

d|-0----0-----------------0----------------|
b|-1h3--1-----------------1--3-------------|
g|---------3--0-----0--3--------3----------|
d|---------0--0--3-----0--------0--------0-|
b|-0----0--------------------------0--3----|
d|-----------------------------------------|

d|-0----0------------------------------------|
b|-1h3--1-----------------1------------------|
g|---------3--0-----0--3-----3--3p0----------|        (Repeat)
d|---------0-----3-----0---------------------|
b|-0---------------------------------0--3----|
d|-------------------------------------------|

Play for the intro, throughout the verses and for the fantastic wah-wah solo. He plays
very loosely with lots of subtle variations, slight bends and vibrato. Have fun with it
play around (Having said that he always plays 3p0 near the end of the riff).  Oh, and 
away your pick and use your fingers like Dan does.

Chorus

d|------------------5--5p3-------------------------|
b|-0--0s5--5--5--3----------3----------------------|
g|-0--0s5--5--5--3-------------5--3----------------|
d|-0--0s5--5--5--3-------------------5-------------|
b|-0--0s5--5--5--3---------------------------------|
d|-------------------------------------------------|

d|-----------------------------------------|
b|-0--0s5--5--5--3-------------------------|
g|-0--0s5--5--5--3--3s5s5------------------|
d|-0--0s5--5--5--3--0------5--3s5h5--------|
b|-0--0s5--5--5--3------------0------------|
d|-----------------------------------------|

This is just a basic tab for the chorus - Again there is a fair bit of subtle variation
you don't need to be fussy - have fun with it.

Cheers,
Duncan
dlaird78@yahoo.co.uk
http://dlaird.wordpress.com/

Lyrics

Verse

Stack shot Billy in the back of the head
Stack made sure Billy Lyons was dead
.45 pistol in Stack's right hand
Sent him away to the promised land

Chorus

Stack shot Billy
.45
Stack shot Billy
Billy laid down and died

Verse

Stack Lee had himself an evil brain
Loved his gun and his sweet cocaine
Stack got quiet when the shadows fell
Knew soon enough that he'd burn in hell

Chorus

Stack shot Billy
.45
Stack shot Billy
Billy laid down and died

==============================

| s  slide up
| h  hammer-on
| p  pull-off
Tap to rate this tab
# A B C D E F G H I J K L M N O P Q R S T U V W X Y Z