Guitaretab - guitar tabs
Song name
# A B C D E F G H I J K L M N O P Q R S T U V W X Y Z

Black Keys - She Said She Said tab

this ones for meggers, may his hairy nipples live forever.

100% right i think...


e------------------------------------|
B----------2-h-3--2-h-3--5-----------|
G--2-h-4-----------------------------|       intro riff
D------------------------------------|
A------------------------------------|
E------------------------------------|

e--------------------3---------3--------------|
B--------------------2--3-s-5----5-s-3--1-----|
G-----2-2------------3---------------------2--|
D-----2-2---------0--0------------------------|
A--0--0-0---3--4------------------------------|
E---------------------------------------------|
[ Tab from: http://www.guitaretab.com/b/black-keys/55829.html ]
e--------------------3-s-5--5--5p3-----3-s-5--|
B-----------------------------------5---------|
G-----2-2-------------------------------------|
D-----2-2--------0----------------------------|
A--0--0-0--3--4-------------------------------|
E---------------------------------------------|

e--------------------------3------------------|
B-------------------3-s-5----5-s-3--1---------|
G-----2-2------------------------------2------| then straight into next part
D-----2-2--------0----------------------------|
A--0--0-0--3--4-------------------------------|
E---------------------------------------------|
...du .d .udu .du .d
e------3--333--33----------|
B------3--333--22--2-------|
G--22--0--000--33--2-------|
D--22--0--000--00--2-------|
A--00--2--222--------------|
E------3--333--------------|

e---7/8\7p5--7--3--5p3-----3-s-5---|
B-----------------------5----------|
G----------------------------------|
D----------------------------------|
A----------------------------------|
E----------------------------------|

"she saiid"  .. yeah the verses are similar to the the intro bit but with out the cool 
just go back down that root 5 A pentatonic scale in between. cool song
Related for She Said She Said tab
Advertisement will be closed in 10 seconds