Song name
# A B C D E F G H I J K L M N O P Q R S T U V W X Y Z

Black Keys - Breaks tab

Help us improve GuitareTab! Take a short survey!
                               The Breaks
                             The Black Keys
                            Tabbed By ZoSo1019


Intro
--------------------------------------------------------------------------------|
----7---------------------------------------------------------------------------|
----7---------------------------------------------------------------------------|
--------------------------------------------------------------------------------|
--------------------------------------------------------------------------------|
--------------------------------------------------------------------------------|


Riff 1
---------8-------3--------------------------------------------------------------|
--------------------------------------------------------------------------------|
---------------------------7----------------------------------------------------|
-------------------------------5s7--5-------------------------------------------|
------------4-x----5-x---------------7s5--3-0-----------------------------------|
--5-x---------------------------------------------------------------------------|

Chorus
--------------------------------------------------------------------------------|
--------------------------------------------------------------------------------|
--------------------------------------------------------------------------------|
--------------------------------------------5h7--7--7--7--7--5h7--7-------------|
-----------7--7--7--7--7--5s7--7------------------------------------------------|
-----------5--5--5--5--5--3s5--5------------------------------------------------|

--------------------------------------------------------------------------------|
--------------------------------------------------------------------------------|
--------------------------------------------------------------------------------|
--------------------------------------------------------------------------------|
--0-3-3h5--5--5--5--5-3h5--5----------------------------------------------------|
--------------------------------------------------------------------------------|

Interlude 1

-----------------8-------------------3-----------------------------------------|
---------------------------------------------------7---------------------------|
---------------------------------------------------7---------------------------|
-------------------------------------------------------------------------------|
---------------------------4--x------------------------------------------------|
----5---x----------------------------------------------------------------------|

interlude 2

-----------------8-------------------3-----------------------------------------|
---------------------------------------------------7--7b1/2--8-8-8-------------|
---------------------------------------------------7--7b1/2--8-8-8-------------|
-------------------------------------------------------------------------------|
---------------------------4--x------------------------------------------------|
----5---x----------------------------------------------------------------------|

Interlude 3 same as interlude 1


In the part after the second interlude he changes up riff one a couple of times here it is

---------------8---------------3-----------------------------------------------|
---------------------------------------------7b8------8b7----------------------|
---------------------------------------------7b8------8b7----------------------|
-------------------------------------------------------------------------------|
-----------------------4--x-------5--x-----------------------------------------|
------5--x---------------------------------------------------------------------|


---------8-------3--------------------------------------------------------------|
---------------------------7----------------------------------------------------|
---------------------------7----------------------------------------------------|
-------------------------------5s7--5-------------------------------------------|
-------------4-x----5-x---------------7s5--3-0----------------------------------|
--5--x--------------------------------------------------------------------------|
Related for Breaks tab