Song name
# A B C D E F G H I J K L M N O P Q R S T U V W X Y Z

Black Keys - Till I Get My Way tab

Help us improve GuitareTab! Take a short survey!
This my first tab so sorry if it sucks

Intro

e----------------------------------------------|
b----------------------------------------------|
g----------------------------------------------|
d----------------------------------------------|
a--7b9--9--9--9--9--9--9--9--9--9--9--7/0------|
e----------------------------------------------|

Verse

d----------------------------------------------|
b----------------------------------------------|
g----------------------------------------------|
d-------------2h4--2---------------------------| (x8)
a--------------------2--2--0--2h4--2--0--------|
e----2--2-2------------------------------------|

chorus

e----------------------------------------------|
b----------------------------------------------|
g----------------------------------------------|
d-------------2---2----------------------------|
a----4---4-----------2----2-2-2----------------|
e----------------------------------------------|

e----------------------------------------------|
b----------------------------------------------|
g----------------------------------------------|
d-------------2h4--2---------------------------| (x6)
a--------------------2--2--0--2h4--2--0--------|
e----2--2-2------------------------------------|


e----------------------------------------------|
b----------------------------------------------|
g----------------------------------------------|
d-------------2---2----------------------------|
a----4---4-----------2----2-2-2----------------|
e----------------------------------------------|


e----------------------------------------------|
b----------------------------------------------|
g----------------------------------------------|
d-------------2h4--2---------------------------| (x2)
a--------------------2--2--0--2h4--2--0--------|
e----2--2-2------------------------------------|

havent worked out solo yet. but it goes here

e----------------------------------------------|
b----------------------------------------------|
g----------------------------------------------|
d-------------2h4--2---------------------------| (x8)
a--------------------2--2--0--2h4--2--0--------|
e----2--2-2------------------------------------|


e----------------------------------------------|
b----------------------------------------------|
g----------------------------------------------|
d-------------2---2----------------------------|
a----4---4-----------2----2-2-2----------------|
e----------------------------------------------|

e----------------------------------------------|
b----------------------------------------------|
g----------------------------------------------|
d-------------2h4--2---------------------------| (x4)
a--------------------2--2--0--2h4--2--0--------|
e----2--2-2------------------------------------|

end on..

e----------------------------------------------|
b----------------------------------------------|
g----------------------------------------------|
d-------------------------------------------4--|
a--7b9--9--9--9--9--9--9--9--9--9--9--7/0---4--|
e-------------------------------------------2--|
Related for Till I Get My Way tab