Song name
# A B C D E F G H I J K L M N O P Q R S T U V W X Y Z

Black Keys - Grown So Ugly tab

Help us improve GuitareTab! Take a short survey!
The Black Keys
Grown So Ugly



I got up this morning [1] = lyrics with part you play at this time.


Main Riff [1]

e[----------0----------------]
b[----------0----------------]
g[0--0----------------1-1----]
d[--2-2p0-------------2-2----]
a[--------2-----------2-2----]
E[------------0-3b-0--x-x----]

I got up this morning [1]
Put on my shoes [1]
Tied my shoes  [1]
Went to the mirror [1]
For to comb my head [1]
I made a move [1]
Didn't know what to do [1]
Try to break and run [1]



Riff[2]
[------------------------------]
[---5-5-5-5-5p3-0--------------]
[-------------------2bp0-------]
[------------------------------]
[------------------------------]
[------------------------------]

Riff[3]

[--------------------------------------]
[--------------------------------------]
[--1-1-----------1-1----------1-1------]
[--2-2--------0--2-2-------0--2-2------]
[--2-2----0h2----2-2---0h2----2-2------]
[--x-x-----------x-x----------x-x------]



Riff[4]
[----------------------------------------------------------/5~~---]
[--------------------/5~~---------------/8~~----------------------]
[-------------1-1----/4~~---------1-1----------------1-1----------]
[----------0--2-2--------------0--2-2-------------0--2-2----------]
[------0h2----2-2----------0h2----2-2---------0h2----2-2----------]
[-------------x-x-----------------x-x----------------x-x----------]


Baby, this ain't me [3]
Baby, this ain't me [3]
Grown so ugly [3]
Grown so ugly [3]
I don't even know myself [3]
I don't even know myself [3]




Riff[5]

[-------------------------------------------------------------------]
[-------------------------------------------------------------------]
[-------------------------------------------------------------------]
[-------------------x-x--------------------------x-x----------------]
[-------------------x-x--------------------------x-x----------------]
[-------0---5---7---x-x---7---5---0--3bp0--0-----x-x----------------]

I left Angola [5]
1964 [5]
Walking down my street [5]
Knock on my baby's door [5]
My baby come out [5]
And asks me who I am  [5]
And I say, honey, honey [5]
Don't you know your man? [5]



 
Chord [6]

e[---x---]
B[---x---]
G[---8---]
D[---7---]
A[---9---]
E[---7---]


She said my man's been gone [6]
Since 1942 [6]
And I'll tell you Mr. Ugly, [6]
He didn't look like you [6]



Main Riff Outro


e[----------0------------------]
b[----------0------------------]
g[0--0----------------1-1--3b~-]
d[--2-2p0-------------2-2------]
a[--------2-----------2-2------]
E[------------0-3b-0--x-x------]


e[----------0------------------]
b[----------0--------------3b~-]
g[0--0----------------1-1------]
d[--2-2p0-------------2-2------]
a[--------2-----------2-2------]
E[------------0-3b-0--x-x------]

e[----------0--------------------------------]
b[----------0--------------8/10-8---8/10-8---]
g[0--0----------------1-1--------9--------9~-]
d[--2-2p0-------------2-2--------------------]
a[--------2-----------2-2--------------------]
E[------------0-3b-0--x-x--------------------]

Then thats all i've got so far, the rest of the outro follows a 
similar pattern, on a E blues scale.

Any suggestions are welcome.

b-bend
p-pull off
h-hammer on
~-sustain note
/-slide down
Related for Grown So Ugly tab