Guitaretab - guitar tabs
Song name
# A B C D E F G H I J K L M N O P Q R S T U V W X Y Z

Black Keys - The Breaks tab

-------------------------------------------------------------------------------
			     The Breaks  The Black Keys
-------------------------------------------------------------------------------
Tabbed by: Grant
Email: scoumaster@hotmail.com

Tuning: Standard

e|---------------------------------------------------------------------------|
B|---------------------------------------------------------------------------|
G|-7-------------------------------------------------------------------------|
D|-7-------------------------------------------------------------------------|
A|-5-------------------------------------------------------------------------|
E|---------------------------------------------------------------------------|

Intro / Verse

e|------8-----3-------------------------------------------------|
B|------------------3-------------------------------------------|
G|--------------------2p0---------------------------------------|
D|------------------------1-0-----------------------------------|
A|--------------5-5-----------3---------------------------------|
E|--5-5---4-4---------------------------------------------------|

Chorus
[ Tab from: http://www.guitaretab.com/b/black-keys/64722.html ]
e|-------------------------------------------------------------------------|
B|-------------------------------------------------------------------------|
G|-------------------7/9-9-9-7/9-5/7-7-7-5/7-7-7--------------------------|
D|--5/7-7-7-5/7-7-7-7/9-9-9-7/9-5/7-7-7-5/7-7-7--------------------------|
A|--5/7-7-7-5/7-7-7-5/7-7-7-5/7-3/5-5-5-3/5-5-5--------------------------|
E|--3/5-5-5-3/5-5-5--------------------------------------------------------|

Interlude

e|----8----3------------------------------------------------|
B|------------3---------------------------------------------|
G|------------0---------------------------------------------|
D|----------------------------------------------------------|
A|-------4--------------------------------------------------|
E|--5-------------------------------------------------------|

At another part, the interlude is

e|----8----3------------------------------------------------|
B|----------------------------------------------------------|
G|------------7---------------------------------------------|
D|------------7---------------------------------------------|
A|-------4----5---------------------------------------------|
E|--5-------------------------------------------------------|

And again it is also:

e|----8----3-----------------------------------------------------------|
B|---------------------------------------------------------------------|
G|------------7b8-7b8-7b8-7b8------------------------------------------|
D|------------7b8-7b8-7b8-7b8------------------------------------------|
A|-------4-------------------------------------------------------------|
E|--5------------------------------------------------------------------|



| /  slide up
| \  slide down
| h  hammer-on
| p  pull-off
| ~  vibrato
| +  harmonic
| x  Mute note
===============================================================================
Related for The Breaks tab