Song name
# A B C D E F G H I J K L M N O P Q R S T U V W X Y Z

Black Keys - The Moan tab

The Moan
Black Keys

Intro Riff
e----------------------------------0-----------------------------------|
B----------------------------------------3p0---------------------------|
G---------------------0----------------------2p0-----------------------|
D-----0h2--2s4---0h2--------2---------------------2--------------------|
A-----------------------2----------------------------------------------|
E--------------------------3-----0-------------------------------------|

Main Riff
e------------------------------------------------------------------|
B--------------------3---------------------------------------------|
G-----------------------2--0---------------------------------------|
D---2--0-----2-----------------------------------------------------|
A-----------2------------------------------------------------------|
E------------------------------------------------------------------|

Every one in a while toss in this beast then go back the the main riff

e----------------0-----------------------------------------|
B----------0h2---------------------------------------------|
G-----0h1--------------------------------------------------|
D----------------------------------------------------------|
A----------------------------------------------------------|
E----------------------------------------------------------|

bridge
e---------------------------------------------------------|
B------3-3-3-3-3-3-3----2-2-2-2-2-2-2----1-1-1-1-1-1-1----|
G------4-4-4-4-4-4-4----3-3-3-3-3-3-3----2-2-2-2-2-2-1----|
D---------------------------------------------------------|
A---------------------------------------------------------|
E---------------------------------------------------------|

Weird cool solo thing
e----------------------------------------------------------0--------------------|
B----2b4b2p0--------------------------------------------------------------------|
G-------------------------------------------------------------------------------|
D---------------2-0--2-----------0h2-0----0h2--0--------------------------------|
A-------------------2--------0h2--------2---------2-----------------------------|
E------------------------0-3-------------------------3b4-----0------------------|

e--------------------------------------------|
B--------------------------------------------|
G--------------------------------------------|
D--0--------0h2--0---------------------------|
A-------0h2----------2p0---------------------|
E-----3--------------------3--0--------------|     Do this a few times then

e-------------------------------------------|
B-------------------------------------------|
G----2b3-0h2--0-2p0-------------------------|
D---------------------2p0-------------------|
A-------------------------------------------|
E-------------------------------------------|

e--------------------------0----------------------------------------------|
B----2b4--0h2-0-----------0-----------------------------------------------|
G----------------2p0------1-----------------------------------------------|
D-------------------------2-----------------------------------------------|
A-------------------------2-----------------------------------------------|
E -------------------------0----------------------------------------------|

And there she is boys, one of me fav songs. if you need anything email me
peace
Tap to rate this tab
# A B C D E F G H I J K L M N O P Q R S T U V W X Y Z