Song name
# A B C D E F G H I J K L M N O P Q R S T U V W X Y Z

Black Keys - All Hands Against His Own tab

Artist-The Black Keys	
Song- All Hands Against His Own
Album-Rubber Factory
Tuning-Standard (Eadgbe)
Distortion-Yes-Crunch
Tabbed by: Mike Fausz (drain_you21@yahoo.com)


h-Hammer on
/-slide
x-Mute
~-Bend

	Intro
e|---------x-----------x-----------------------------x-----+
b|---------x-----------x-----------------------------x-----+
g|---------x---------6-x4/6---------------2~-------6-x4/6--+ 
d|-------2-x----2----7-x5/7-----2~------2----------7-x5/7--+
a|-5-3-5---x3-5------7-x5/7-3-5-----3-5------------7-x5/7--+
E|---------x------5--5-x3/5--------------------0-5-5-x3/5--+

        Verse Riff
e|--------------------x-----------------------------x-----+
B|--------------------x-----------------------------x-----+
G|------------------6-x4/6---------------2~-------6-x4/6--+ 
D|-----2~------2----7-x5/7-----2~------2----------7-x5/7--+
A|-3-5-----3-5------7-x5/7-3-5-----3-5------------7-x5/7--+
E|---------------5--5-x3/5--------------------0-5-5-x3/5--+

	Chorus
e|-------------------------x-----------x-----+
B|-/7-5-7-5---/7-5-7-5-----x-----------x-----+
G|-/7-5-7-5---/7-5-7-5---6-x4/6------6-x4/6--+
D|-/7-5-7-5---/7-5-7-5---7-x5/7------7-x5/7--+
A|-/5-3-5-3---/5-3-5-3---7-x5/7--3---7-x5/7--+
E|---------------------5-5-x3/5----5-5-x3/5--+


	Bridge 
e|------------------------------------------+
B|------------------------------------------+
G|-7h9-7----7-7~------------9--------9------+
D|-------10-----------10-12----10-12--------+ 
A|-----------------12-------------------12--+
E|------------------------------------------+
 
        End On
e|--------------------+
B|--------------------+
G|--------------------+
D|------2~------2-----+
A|--3-5-----3-5-------+
E|----------------5\--+
Tap to rate this tab
# A B C D E F G H I J K L M N O P Q R S T U V W X Y Z