Guitaretab - guitar tabs
Song name
# A B C D E F G H I J K L M N O P Q R S T U V W X Y Z

Black Keys - Just Couldnt Tie Me Down tab

Intro
e---/8---0-0---/7-777-6-5-------------|
B--------0-0---/7-777------8--5-------|
G--------------------------7----------|
D---------------------------------7p5-|
A-------------------------------------|
E-------------------------------------|

Riff 1

e-------------------------------------|
B-------------------------------------|
G--9-x--99x-x--12p9-x---14---16-16-x--|
D--9-x--99x-x--x----x---x----x--x--x--|
A--7-x--77x-x--10p7-x---12---14-14-x--|
E-------------------------------------|
                                ^
                              lower

e-----------------------------------|
B-----------------------------------|
G--9-x--99x-x--16-16--14--12--------|
D--9-x--99x-x--x--x---x---x---------|
A--7-x--77x-x--14-14--12--10--12p10-|
E-----------------------------------|
                              ^
                           soft bend

Then only repeats the first part of the riff

Chorus

e---------------------------------------------------------------|
B---------------------------------------------------------------|
G---------------------------------------------------------------|
D---------------------------------------------------------------|
A--5h7-5h7-5h7-5h7p5p2-2h5-2h5-2h5-2h5p2p0-2-0h2-0h2-0h2--------|
E-------------------------------------------------------3-5--3--|

Solo (second guitar playing Riff 1

e--------------------------------------|
B------------10--10b--10b----------14b-|
G-/9-12p9-12--------------9-12b-9------|
D--------------------------------------|
A--------------------------------------|
E--------------------------------------|
[ Tab from: http://www.guitaretab.com/b/black-keys/72942.html ]
e-----------------------------------------------------|
B----12-10-------------------10b----------------8/17~-|
G--9-------12b---9-12-9-12b-------9-12b-9-12b-9-------|
D-----------------------------------------------------|
A-----------------------------------------------------|
E-----------------------------------------------------|


e-------------------15~-15------------------------------0--------|
B-17---17---17---17-------17-17-15-15h17-15-17-------11----------|
G---15b--15b--15b-----------------------------15-12~b~~---------|
D----------------------------------------------------------------|
A----------------------------------------------------------------|
E----------------------------------------------------------------|

2ond solo

1st part (2 times)
e--------------------------------|
B-------------------10b-10b------|
G---9-12-9-12b-[x3]----9---------|
D--------------------------------|
A--------------------------------|
E--------------------------------|

e------------------------------|
B--/15-12p10-------------------|
G-----------9-12b-12p9-12b-----|
D------------------------------|
A------------------------------|
E------------------------------|
       and doing things like this then he starts again with the slide

e----------------------|
B--/15-12-10-17-15-----|
G----------------------|
D----------------------|
A----------------------|
E----------------------|
 and more bendings ang pull off's and finally

e-----------------------------------------/15-|
B-17---17---17---17---17---17---17---17-------|
G---15b--15b--15b--15b--15b--15b--15b--15b----|
D---------------------------------------------|
A---------------------------------------------|
E---------------------------------------------|


That's all!
Related for Just Couldnt Tie Me Down tab