Song name
# A B C D E F G H I J K L M N O P Q R S T U V W X Y Z

Black Keys - Strange Desire tab

First tab, should be really darn tootin accurate though. Get the notes under your 
and then just add bags of feel. Good song to learn to sing whilst playing to as well- most 
Keys stuff is.

The /\/\/ aspects mean apply a bit of tremolo to the note.

INTRO:

E|--3---0-0------------------------|--3---0-0------------------------|
B|--0---2-2------------------------|--0---2-2------------------------|
G|--0---2-2------------------------|--0---2-2------------------------|
D|--0---2-2------------------------|--0---2-2------------------------|
A|--2---0-0------------------------|--2---0-0------------------------|
E|--3---X-X------------------------|--3---X-X------------------------|

"Whoah!                             Whoah!"
E|--3---0-0----------0---2-2-------|--2-2-----------0---0-0----------|
B|--0---2-2----------1---3-3-------|--3-3-----------1---2-2----------|
G|--0---2-2----------0---2-2-------|--2-2-----------0---2-2----------|  X2
D|--0---2-2----------2---0-0-------|--0-0-----------2---2-2----------|
A|--2---0-0----------3---X-X-------|--X-X-----------3---0-0----------|
E|--3---X-X----------X---X-X-------|--X-X-----------X---X-X----------|


VERSE:

"I don't wanna go to hell, but if I do... It'll be 'cus of you"
E|-----0-0----------0---2-2--------|--2-2-----------0---0-0----------|
B|-----2-2----------1---3-3--------|--3-3-----------1---2-2----------|
G|-----2-2----------0---2-2--------|--2-2-----------0---2-2----------|
D|-----2-2----------2---0-0--------|--0-0-----------2---2-2----------|
A|-----0-0----------3---X-X--------|--X-X-----------3---0-0----------|
E|-----X-X----------X---X-X--------|--X-X-----------X---X-X----------|

"And young man, gonna make mistakes... 'till he hits the breaks"
E|-----0-0----------0---2-2--------|--2-2-----------0---0-0----------|
B|-----2-2----------1---3-3--------|--3-3-----------1---2-2----------|
G|-----2-2----------0---2-2--------|--2-2-----------0---2-2----------|
D|-----2-2----------2---0-0--------|--0-0-----------2---2-2----------|
A|-----0-0----------3---X-X--------|--X-X-----------3---0-0----------|
E|-----X-X----------X---X-X--------|--X-X-----------X---X-X----------|

"My hearts on fire!..               With a strange desire"
E|-----0-0----------0---2-2--------|--2-2-----------0---0-0----------|
B|-----2-2----------1---3-3--------|--3-3-----------1---2-2----------|
G|-----2-2----------0---2-2--------|--2-2-----------0---2-2----------|
D|-----2-2----------2---0-0--------|--0-0-----------2---2-2----------|
A|-----0-0----------3---X-X--------|--X-X-----------3---0-0----------|
E|-----X-X----------X---X-X--------|--X-X-----------X---X-X----------|

FIRST SOLO:

E|---------------------------------|---------------------------------|
B|---------------------------------|---------------------------------|
G|---------------------------------|---------------------------------|
D|---------------------------------|---------------------------------|
A|-----3h5-5\/\/-3---3h5-3---------|-----3h5-5\/\/\/\--3/\/\/\//\----|
E|-3h5------------5-------5/\/\----|-3h5-----------------------------|

E|---------------------------------|---------------------------------|
B|---------------------------------|---------------------------------|
G|---------------------------------|---------------------------------|
D|---------------------------------|---------------------------------|
A|-----3h5-5\/\/-3---3h5-3---------|-----3h5-5\/\--3-----------------|
E|-3h5------------5-------5/\/\----|-3h5-------------5-4-3-0-5/\/\/--|

E|---------------------------------|
B|---------------------------------|
G|---------------------------------|
D|---------------------------------|
A|----------------------------3h5p3|
E|(cont)5/\/\/\/\/-----------------|


VERSE


"Whoah!                             Whoah!"
E|-----0-0----------0---2-2--------|--2-2-----------0---0-0----------|
B|-----2-2----------1---3-3--------|--3-3-----------1---2-2----------|
G|-----2-2----------0---2-2--------|--2-2-----------0---2-2----------|
D|-----2-2----------2---0-0--------|--0-0-----------2---2-2----------| X2
A|-----0-0----------3---X-X--------|--X-X-----------3---0-0----------|
E|-----X-X----------X---X-X--------|--X-X-----------X---X-X----------|

"All those birds, on the wire...    are gonna say that I'm a liar"
E|-----0-0----------0---2-2--------|--2-2-----------0---0-0----------|
B|-----2-2----------1---3-3--------|--3-3-----------1---2-2----------|
G|-----2-2----------0---2-2--------|--2-2-----------0---2-2----------|
D|-----2-2----------2---0-0--------|--0-0-----------2---2-2----------|
A|-----0-0----------3---X-X--------|--X-X-----------3---0-0----------|
E|-----X-X----------X---X-X--------|--X-X-----------X---X-X----------|

"But we all know, in the end...    they never was my friend"
E|-----0-0----------0---2-2--------|--2-2-----------0---0-0----------|
B|-----2-2----------1---3-3--------|--3-3-----------1---2-2----------|
G|-----2-2----------0---2-2--------|--2-2-----------0---2-2----------|
D|-----2-2----------2---0-0--------|--0-0-----------2---2-2----------|
A|-----0-0----------3---X-X--------|--X-X-----------3---0-0----------|
E|-----X-X----------X---X-X--------|--X-X-----------X---X-X----------|

"My hearts on fire!..               With a strange desire"
E|-----0-0----------0---2-2--------|--2-2-----------0---0-0----------|
B|-----2-2----------1---3-3--------|--3-3-----------1---2-2----------|
G|-----2-2----------0---2-2--------|--2-2-----------0---2-2----------|
D|-----2-2----------2---0-0--------|--0-0-----------2---2-2----------|
A|-----0-0----------3---X-X--------|--X-X-----------3---0-0----------|
E|-----X-X----------X---X-X--------|--X-X-----------X---X-X----------|

SECOND SOLO:

E|---------------------------------|---------------------------------|
B|---------------------------------|---------------------------------|
G|---------------------------------|---------------------------------|
D|---------------------------------|---------------------------------|
A|-----3h5-5\/\/-3---3h5-3---------|-----3h5-5\/\/\/\--3/\/\/\//\----|
E|-3h5------------5-------5/\/\----|-3h5-----------------------------|

E|---------------------------------|---------------------------------|
B|---------------------------------|---------------------------------|
G|---------------------------------|---------------------------------|
D|---------------------------------|---------------------------------|
A|-----3h5-5\/\/-3---3h5-3---------|-----3h5-5\/\/\/--3/\/\/---------|
E|-3h5------------5-------5/\/\----|-------------------------5/\/\/--|

E|---------------------------------|
B|---------------------------------|
G|---------------------------------|
D|---------------------------------|
A|---------------------------------|
E|(cont)5/\/\/\/\/\/\/\/\/\/\/\/\/-|

OUTRO SOLO:

E|---------------------------------|---------------------------------|
B|---------------------------------|---------------------------------|
G|---------------------------------|-5h7p5---------------------------|
D|-567/\/\/\-----------------------|-------5h7/\/\-------------------|
A|---------------------------------|---------------------------------|
E|---------------------------------|---------------------------------|

E|---------------------------------|---------------------------------|
B|-8-7-5---------------------------|---------------------------------|
G|-------7s9/\/---5-7-5------------|---------------------------------|
D|---------------------7-5---------|-10-9-10-9-10s12/\/--10-910s12---|
A|-------------------------7s12/\/\--------|-------------------------|
E|---------------------------------|---------------------------------|

E|---------------------------------|---------------------------------|
B|---------------------------------|---------------------------------|
G|---------------------------------|------5s7-5-7-5-7s9/\/\--(fade)--|
D|-10-9-10s12s10/\/\/\-------------|-----7---------------------------|
A|---------------------------------|---7-----------------------------|
E|---------------------------------|---------------------------------|
Tap to rate this tab
# A B C D E F G H I J K L M N O P Q R S T U V W X Y Z