Song name
# A B C D E F G H I J K L M N O P Q R S T U V W X Y Z

Black Keys - Modern Times tab

Artist: The Black Keys    http://www.theblackkeys.com/
Track: Modern Times
Album: Magic Potion
Tabber: Woodshed




Riff A

e|--------------------------------------------------------------|
B|--------------------------------------------------------------|
G|--------------------------------------------------------------|
D|-----5--7--7--7--5--------------------------------------------|
A|-----5--7-------------5-6-7\5p3----5p3p0----------------------|
E|-----3--5-----------------------------------------------------|


e|--------------------------------------------------------------|
B|--------------------------------------------------------------|
G|--------------------------------------------------------------|
D|-----5--7--7--7--5--------------------------------------------|
A|-----5--7-------------/5------\3------------------------------|
E|-----3--5-----------------------------------------------------|

X2


Riff B

e|--------------------------------------------------------------|
B|--------------------------------------------------------------|
G|--------------------------------------------------------------|
D|-----5----7-----------------------7---------------------------|
A|-----5----7-----------------------7---------------------------|
E|-----3----5-----------------------5---------------------------|

X4

Riff A X2

Riff BX4

Riff A X2

Riff C

e|-------------------------------------------------------------|
B|-------------------------------------------------------------|
G|-------------------------------------------------------------|
D|-------------------------------------------------------------|
A|------------3h5---3---------------3---3----------------------|
E|---5-5-3-5------5---5-5-3-5---------5------------------------|

X4

Riff D

e|-------------------------------------------------------------|
B|-------------------------------------------------------------|
G|-------------------------------------------------------------|
D|-------------------------------------------------------------|
A|------3---5/7---5---3----2------0----------------------------|
E|----5--------------------------------------------------------|

Riff E

e|-------------------------------------------------------------|
B|-------------------------------------------------------------|
G|-------------------------------------------------------------|
D|-------------------------------------------------------------|
A|---5-5---3p2----0--------------------------------------------|
E|-------------------------------------------------------------|

X4 with fills (last time one octave higher followed by riff D one octave higher)


Riff A X2

Riff B X4

Riff C repeat to end
Tap to rate this tab
 
# A B C D E F G H I J K L M N O P Q R S T U V W X Y Z