Guitaretab - guitar tabs
Song name
# A B C D E F G H I J K L M N O P Q R S T U V W X Y Z

Black Keys - Desperate Man tab

----------------------------------------------------------------------------
			     Desperate Man - The Black Keys
----------------------------------------------------------------------------

Tabbed by:MCiccone

Email: Mcdaddy0945@aol.com

Tuning: Standard

* So i was just sitting at my computer, messed around, and got this for you.  Maybe I 
finish the song someday, I have no idea.

Intro:

e|-----3--------------3---------------------------|
B|-----3--------------3---------------------------|
G|-----4--------------4---------------------------|
D|-----5------3-------5----3b5r3p1------5^~~~-----|
A|-----5--3/5----x----5-------------3-------------|
E|---3--------------3-----------------------------|
                         (Play Fast!)
Verse:

(This part is simple)
[ Tab from: http://www.guitaretab.com/b/black-keys/86298.html ]
e|-----3--------------| * Play this untill you get to:-- 
B|.----3-------------.|                             ---- 
G|-----4--------------|                           ------ 
D|.----5-------3-----.|                         -------- 
A|-----5--3h5----x----|                       ---------- 
E|---3----------------|                     ------------ 
                                           -
e|----3--------------------------|      -- 
B|----3--------------------------|    ---- 
G|----4--------------------------|  ------ 
D|----5----3b5r3p1------5^~~~----| <------ 
A|----5-------------3--------------------- 
E|--3------------------------------------- 

^ The 3 on A could be muted, it is arguable.

| h - Hammer
| / - Slide
| b - Bend
| ^ - Bend (also)
| ~ - Vibrato
| r - Return
| p - Pull
----------------------------------------------------------------------------
Related for Desperate Man tab
Advertisement will be closed in 10 seconds