Song name
# A B C D E F G H I J K L M N O P Q R S T U V W X Y Z

Black Keys - Goodbye Babylon tab

----------------------------------------------------------------------------
			  Goodbye Babylon - Black Keys
----------------------------------------------------------------------------

Tabbed by:Nicky Degheselle

Email: nikskeopnieuwonline1@hotmail.com

Tuning: standard

Note: Behold the intro of goodbye babylon, where I put (xx) above notes I mean that u 
choose between the notes or just make them ghosts on the same snare... This sounds really 
and i'm working on the rest of the song

greetzz

e|-------------------------------------------------------------------------|
B|-------------------------------------------------------------------------|
G|-------------------------------------------------------------------------|
D|------------15----------------(xx)---------------------------------------|
A|---10-10\17----15h17-13h15-13-1010-10\13-15151515\17----\15151515---17---|
E|-----------------------------------------------------18-----------18--18-|

e|-------------------------------------------------------------------------|
B|-------------------------------------------------------------------------|
G|-------------------------------------------------------------------------|
D|-------------------------------------------------------------------------|
A|---------8-----------(xx)------------------------------------------------|
E|---33\10---8h10-6h8-6-33-3\6-8888\10-6--8888-6\10-6----------------------|

e|-------------------------------------------------------------------------|
B|-------------------------------------------------------------------------|
G|-------------------------------------------------------------------------|
D|-------------------------------------------------------------------------|
A|---------8-----------(xx)------------------------------------------------|
E|---33\10---8h10-6h8-6-33-3\6-8888\10-6--8888-6\10-6----------------------|

e|-------------------------------------------------------------------------|
B|-------------------------------------------------------------------------|
G|-------------------------------------------------------------------------|
D|------------------------------------------10-10b12-----------------------|
A|---------8-----------(xx)------------------x-----------------------------|
E|---33\10---8h10-6h8-6-33-3\6-8888\10-6--8888-----------------------------|


Black keys rock!

| /  slide up
| \  slide down
| h  hammer-on
| p  pull-off
| ~  vibrato
| +  harmonic
| x  Mute note
============================================================================
Tap to rate this tab
 
# A B C D E F G H I J K L M N O P Q R S T U V W X Y Z