Song name
# A B C D E F G H I J K L M N O P Q R S T U V W X Y Z

Black Keys - Keep Your Hands Off Her tab

E--------------------------------------------------------------------------------------------|
B--------------------------------sweep7------------------------------------------------------|
G-4h5h6---4-------4h6-------------------6p4----------------2h3h4-2-----2h4---2---------------|
D-------------7--------------------------------7-4-----2/4---------4-------------4---2h4-----|
A--------------------------------------------------------------------------------------------|
E--------------------------------------------------------------------------------------------|


----------------------------------------------------------------------------------------------------------------------------------------------------------------|
----2/6/4----2/4/2----------------------7--7---5-------------------------------------------------------------------------------7--7--7---5----5-----------------|
----2/6/4----2/4/2----------------------6--6---6---6--4--2-------2--4/6--4/2----------------2h3h4--2-----2h3h4--2--------------6--6--6---6--6---4----2----------|
------------------------4--2/4------------------------------4-----------------4---2/4---------------4-------------4--2/4----------------------------------------|
----------------------------------------------------------------------------------------------------------------------------------------------------------------|
----------------------------------------------------------------------------------------------------------------------------------------------------------------|

That's basically it, some small variations that you can probably figure out. Some parts 
be used with a slide, but either way doesn't really matter.
Tap to rate this tab
 
# A B C D E F G H I J K L M N O P Q R S T U V W X Y Z