Song name
# A B C D E F G H I J K L M N O P Q R S T U V W X Y Z

Black Kids - Look At Me When I Rock Whichoo tab

Help us improve GuitareTab! Take a short survey!
e--4--5--2--5--4---------------|
B--5--7--3--7--5---------------|
G--4--6--2--6--4---------------|
D------------------------------|
A------------------------------|
E------------------------------|repeated throughout the song

e------------------------------|riff played during chorus
B------------------------------|
G------------6-----------------|
D----7---7h9----7---9-7--------|
A--9---9------9---9------------|
E------------------------------|
Related for Look At Me When I Rock Whichoo tab