Song name
# A B C D E F G H I J K L M N O P Q R S T U V W X Y Z

Black Label Society - Stillborn tab

In The Intro of this song and any other part that sound like it alternate pick between the two pickups

KEY:
/~slide up              b~bend
\~slide down            b()~while in ()than play while still bending
H~hammer on             l~let off (dont pick)

|----------------------------------------------------------------------------|
|----------------------------------------------------------------------------|
|----------------------------------------------------------------------------|
|----------------------------------------------------------------------------|
|----------------------------------------------------------------------------|
|-2-2-2-2-2---2-2-2-2-2-----2-2-2-2-2-2---2-2-2-2-2------2-2-2-2-2---2-2-2-2-|


|---------------------------------------------------------------------------|
|---------------------------------------------------------------------------|
|---------------------------------------------------------------------------|
|---2---------------2----------------2---------------2-----------2--------2-|
|---2---------------2----------------2---------------2-----------2--------2-|
|------0---0-------------0---0------------0---0---------0---0---------0-----|


|---------------------------------------------------------------------------|
|---------------------------------------------------------------------------|
|---------------------------------------------------------------------------|
|---------------------------------------------------------------------------|
|---------------------------------------------------------------------------|
|--2-2-2-2-2---2-2-2-2-2------2-2-2-2-2---2-2-2-2-2-------------------------|


|---------------------------------------------------------------------------|
|------------------------------------5--------------------------------------|
|------------------2-----------------2--------4/5\4-----4/5\4---2-----------|
|------------------0--------------------------x---------x-------2-----------|
|---4--------------0--------------------------2/3\2-----2/3\2---0-----------|
|---2-----x---x------------x---x-----------------------------------0---0----|


|---------------------------------------------------------------------------|
|---------------------------------------------------------------------------|
|---------------------------------------------------------------------------|
|---------------------------------------------------------------------------|
|--7-9-7-9-7-9-7-9-7-9-7-9-7-9-7-9-7-9-7-9-7-9-7-9-7-9-7-9-7-9-7-9-7-9-7-9--|
|---------------------------------------------------------------------------|


|----------------------------------------------------------------------------|
|----------------------------------------------------------------------------|
|----------------------------------------------------------------------------|
|---------7-9b---9----9b(--------9--9)-----7---------------------------------|
|---7-9----------------------------------------------------------------------|
|----------------------------------------------------------------------------|

|---------------------------------------------------------------------------|
|---------------------------------------------------------------------------|
|------------------------------------------16L14-16b------------------------|
|-------------------------------14-16-14------------------------------------|
|------------12-14/15-14-16-16----------------------------------------------|
|--12-14-14-----------------------------------------------------------------|

|---------------------------------------------------------------------------|
|--------------------------------14-17-17b--17L14-17------------------------|
|----------------------14-16-16---------------------------------------------|
|------------14-16-16-------------------------------------------------------|
|--14-16-16-----------------------------------------------------------------|
|---------------------------------------------------------------------------|

|---14----------------14---------------14--------------14--------17b--------|
|-------17L14-17b---------17L14-17b--------17L14-17b------17L14-------------|
|---------------------------------------------------------------------------|
|---------------------------------------------------------------------------|
|---------------------------------------------------------------------------|
|---------------------------------------------------------------------------|

|14H17L14------14------14--17--16H17------16--------------------------------|
|----------17------17-----------------19------19L17-------------------------|
|------------------------------------------------------21b------------------|
|---------------------------------------------------------------------------|
|---------------------------------------------------------------------------|
|---------------------------------------------------------------------------|

|---------------------------------------------------------------------------|
|-4b-2H5L2------2H5L2-----2H5L2---------------------------------------------|
|----------4b-----------4b------4B(-4--4--4--4)4---2------------------------|
|---------------------------------------------------------------------------|
|---------------------------------------------------------------------------|
|---------------------------------------------------------------------------|

|---------4H5H7------------5H7H9------------7H9H10-------------9H10H10------|
|-3H5H7------------5H7H9-----------7H9H10------------9H10H12----------------|
|---------------------------------------------------------------------------|
|---------------------------------------------------------------------------|
|---------------------------------------------------------------------------|
|---------------------------------------------------------------------------|

|-------------10H12H14----------------10H12H14------------10H12H14----9-9----|
|--10H12H14---------------10H12H14---------------10H12H14--------------------|
|----------------------------------------------------------------------------|
|----------------------------------------------------------------------------|
|----------------------------------------------------------------------------|
|----------------------------------------------------------------------------|

|---------------------------------------------------------------------------|
|----------7B---------------------------------------------------------------|
|--11L0---------------------------------------------------------------------|
|---------------------------------------------------------------------------|
|---------------------------------------------------------------------------|
|-----------------2-2-2-2-2--2-2-2-2-2-----2-2-2-2-2--2-2-2-2-2-------------|
Tap to rate this tab
 
# A B C D E F G H I J K L M N O P Q R S T U V W X Y Z